Oops, an error
Loading. Please wait.

Evil Primeval Bass Tab

4 views 1 this week
no commentswrite comment
1 2 3 4 5
3 more votes to show rating
add to favorites
launch autoscroll
font size
0
reset
guitar tuner
Autoscroll
slow
fast
+/-
esc
set tempo
stop
Help us to improve Ultimate-Guitar.com Take our survey!
×
Author
Difficulty
Main Riff (Verse)                                                     x12
G|-----------------------------------------------------------------------|
D|-----------------------------------------------------------------------|
A|-----------------------------------------------------------------------|
E|-3/-1--3/-1--3-1---3/-1--3/-1--3-1---3/-1--3/-1--3-1---3/-1--3/-1--3-1-|


Bridge ("Well Then You've Never Been Alive..." [0:39]
G|----------------------------------------------------------------------------------|
D|----------------------------------------------------------------------------------|
A|-3-3-3-3-3--1-----------------3-3-3-3-3--1----------------3-3-3-3-3---------------|
E|---------------3-3-3-3--3-3-3--------------3-3-3-3--3-3-3-------------1--1--1-1-1-|

("I'm Evil, I'm Evil, I'm Evil...")
G|-----------------------------------------------------------------------|
D|-----------------------------------------------------------------------|
A|-----------------------------------------------------------------------|
E|-3/-1--3/-1--3-1---3/-1--3/-1--3-1---3/-1--3/-1--3-1---3/-1--3/-1--3-1-|

Bridge ("Primeval..." [0:54]
G|----------------------------------------------------------------------------------|
D|----------------------------------------------------------------------------------|
A|-3-3-3-3-3--1-----------------3-3-3-3-3--1----------------3-3-3-3-3---------------|
E|---------------3-3-3-3--3-3-3--------------3-3-3-3--3-3-3-------------1--1--1-1-1-|


Main Riff (Solo and Outro)                                            x24
G|-----------------------------------------------------------------------|---------------------------|
D|-----------------------------------------------------------------------|---------------------------|
A|-----------------------------------------------------------------------|---------------------------|
E|-3/-1--3/-1--3-1---3/-1--3/-1--3-1---3/-1--3/-1--3-1---3/-1--3/-1--3-1-|--3-----3---------3--------|



Main riff is played over and over, there's only the two parts in the song, the "Main Riff" and the Bridge. 
Off of 1993's "SugarFix" Marky DeSade (Danny Bland) on the bass.
Suggest correction
Give kudos to tab author, rate the tab!
1 2 3 4 5
comments
print report bad tab
guest
You may want to rate the tab now too:
select rating
Wanna post a correction for this tab? Suggest correction