Oops, an error
Loading. Please wait.

Three Seconds Bass Tab

19 views 1 this week
no commentswrite comment
1 2 3 4 5
3 more votes to show rating
add to favorites
launch autoscroll
font size
0
reset
guitar tuner
Autoscroll
slow
fast
+/-
esc
set tempo
stop
Help us to improve Ultimate-Guitar.com Take our survey!
×
Author
Difficulty
intermediate
Intro
G------------------------------------------------------|
D------------------------------------------------------|
A---4-4-4-4-4----8--6--4----4-4-4-4-4------------------|
E-6-----------6-----------6-----------6--6-6-6-6-6-6-6-|

Verse
G-------------------------|------------------------|-------------------------|-------------------|
D-------------------------|------------------------|-------------------------|-------------------|
A---8-8-8-8-8--4--1-------|---8-8-8-8-8--4--1------|---8-8-8-8-8--4--1-------|----------4-4-4----|
E-6------------------4--6-|-6------------------4---|-6------------------4--6-|-1-1--4-4-------6--|

G-------------------------|------------------------|-------------------------|-------------------|
D-------------------------|------------------------|-------------------------|-------------------|
A---8-8-8-8-8--4--1-------|---8-8-8-8-8--4--1------|---8-8-8-8-8--4--1-------|----------4-4-4----|
E-6------------------4--6-|-6------------------4---|-6------------------4--6-|-1-1--4-4-------6--|

Bridge                                               x2
G------------------------------------------------------|
D------------------------------------------------------|
A---4-4-4-4-4----8--6--4----4-4-4-4-4------------------|
E-6-----------6-----------6-----------6--6-6-6-6-6-6-6-|

Verse
G-------------------------|------------------------|-------------------------|-------------------|
D-------------------------|------------------------|-------------------------|-------------------|
A---8-8-8-8-8--4--1-------|---8-8-8-8-8--4--1------|---8-8-8-8-8--4--1-------|----------4-4-4----|
E-6------------------4--6-|-6------------------4---|-6------------------4--6-|-1-1--4-4-------6--|

G-------------------------|------------------------|-------------------------|-------------------|
D-------------------------|------------------------|-------------------------|-------------------|
A---8-8-8-8-8--4--1-------|---8-8-8-8-8--4--1------|---8-8-8-8-8--4--1-------|----------4-4-4----|
E-6------------------4--6-|-6------------------4---|-6------------------4--6-|-1-1--4-4-------6--|

Outro        ("3 Seconds,              3 Seconds,               3 Seconds")
G-----------------------------------------------------------------------------|
D-----------------------------------------------------------------------------|
A---4-4-4-4-4----8--6--4----4-4-4-4-4----8--6--4----4-4-4-4-4-----8--6--4-----|
E-6-----------6-----------6-----------6-----------6------------6------------6-|
Suggest correction
Give kudos to tab author, rate the tab!
1 2 3 4 5
comments
print report bad tab
guest
You may want to rate the tab now too:
select rating
Wanna post a correction for this tab? Suggest correction