Oops, an error
Loading. Please wait.

What Hit You Bass Tab

1 view 1 this week
no commentswrite comment
1 2 3 4 5
3 more votes to show rating
add to favorites
launch autoscroll
font size
0
reset
guitar tuner
Autoscroll
slow
fast
+/-
esc
set tempo
stop
Help us to improve Ultimate-Guitar.com Take our survey!
×
Author
Difficulty
Verse 1
G-----------------------------|-----------------------------|-----------------------------|
D-----------------------------|-----------------------------|-----------------------------|
A---2-5---4-5-----------------|---2-5---4-5-----------------|---2-5---4-5-----------------|
E-3-----5-----7-7-7-7-7-7-7-7-|-3-----5-----7-7-7-7-7-7-7-7-|-3-----5-----7-7-7-7-7-7-7-7-|

G-----------------------------|-----------------------------|
D-----------------------------|-----------------------------|
A---2-5---4-5-----------------|---2-5---4-5-----------------|
E-3-----5-----7-7-7-7-7-7-7-7-|-3-----5-----7-7-7-7-7-7-7-7-|


Chorus ("You Won't Know What Hit Ya")
G--------------------------------------------------------------------|
D--------------------------------------------------------------------|
A------------------5-5-5-5---7-7-7-----------------------------------|
E-7-7-7-7--5-5-5-5-----------------7-7-7-7--5-5-5-5--7-7-7-7-7-7-7-7-|

Verse 2
G------------------------------|------------------------------|
D------------------------------|------------------------------|
A--------------------2-5---4-5-|--------------------2-5---4-5-|
E-7-7-7-7-7-7-7-7--3-----5-----|-7-7-7-7-7-7-7-7--3-----5-----|

G------------------------------|------------------------------|
D------------------------------|------------------------------|
A--------------------2-5---4-5-|--------------------2-5---4-5-|
E-7-7-7-7-7-7-7-7--3-----5-----|-7-7-7-7-7-7-7-7--3-----5-----|


Chorus ("You Won't Know What Hit Ya")
G--------------------------------------------------------------------|
D--------------------------------------------------------------------|
A------------------5-5-5-5---7-7-7-----------------------------------|
E-7-7-7-7--5-5-5-5-----------------7-7-7-7--5-5-5-5--7-7-7-7-7-7-7-7-|

G--------------------------------------------------------------------|
D--------------------------------------------------------------------|
A------------------5-5-5-5---7-7-7-----------------------------------|
E-7-7-7-7--5-5-5-5-----------------7-7-7-7--5-5-5-5--7-7-7-7-7-7-7-7-|

Solo
G------------------------------|------------------------------|
D------------------------------|------------------------------|
A--------------------2-5---4-5-|--------------------2-5---4-5-|
E-7-7-7-7-7-7-7-7--3-----5-----|-7-7-7-7-7-7-7-7--3-----5-----|

G------------------------------|------------------------------|
D------------------------------|------------------------------|
A--------------------2-5---4-5-|--------------------2-5---4-5-|
E-7-7-7-7-7-7-7-7--3-----5-----|-7-7-7-7-7-7-7-7--3-----5-----|


Outro ("You Won't Know What Hit Ya")
G----------------------------------|----------------------------------|
D----------------------------------|----------------------------------|
A------------------5-5-5-5---7-7-7-|------------------5-5-5-5---7-7-7-|
E-7-7-7-7--5-5-5-5-----------------|-7-7-7-7--5-5-5-5-----------------|

G----------------------------------|----------------------------------|
D----------------------------------|------------------9-7-------------|
A------------------5-5-5-5---7-7-7-|----------------------9-7---------|
E-7-7-7-7--5-5-5-5-----------------|-7-7-7-7--5-5-5-5---------7-------|
Suggest correction
Give kudos to tab author, rate the tab!
1 2 3 4 5
comments
print report bad tab
guest
You may want to rate the tab now too:
select rating
Wanna post a correction for this tab? Suggest correction