Oops, an error
Loading. Please wait.

One Reason bass

by DWB
4,469 views 3 this week
no commentswrite comment
1 2 3 4 5
x 3
add to favorites
×
Save as Personal and add changes to this tab that will be seen only by you. Learn more ›
×
You can save this tab as Personal to edit and correct it or add notes. All changes will be seen only by you. Learn more »
launch autoscroll
font size
0
reset
guitar tuner
edit
Autoscroll
slow
fast
+/-
esc
set tempo
stop
Author
Difficulty
DWB feat. Fade - [One Reason]

Tabbed by: XxThreeCheersxX
E-mail: phantomhiveghost@gmail.com

Tuning: Standard

This song is probably best known as the opening to the fantastic Deadman Wonderland.
I've tabbed the full version here; the order for the shortened version is at the end.
Also, I divided the first verse into two parts and an interlude to make it easier to read.

Intro I - Guitar Only

Intro II
G|-------------------------------------------------------------|
D|-----------------------------------------------------------2-|
A|-------------------------------------------------------------|
E|-02-02-02-02-3--02-02-02-02-0--02-02-02-02-33-02-02-02-02-0--|

                                                       (Played very fast)
G|--------------------------------------------------------------------|
D|--------------------------------------------------------2-6\4-2/4---|
A|--------------------------------------------------------------------|
E|-02-02-02-02-3--02-02-02-02-0--02-02-02-02-33-02-02-02-0------------|

Verse I-A
G|-------------------------------------------------------------|
D|-----------------------------------------------------------2-|
A|-------------------------------------------------------------|
E|-02-02-02-02-3--02-02-02-02-0--02-02-02-02-33-02-02-02-02-0--|
                                                       (Played very fast)
G|--------------------------------------------------------------------|
D|--------------------------------------------------------2-6\4-2/4---|
A|--------------------------------------------------------------------|
E|-02-02-02-02-3--02-02-02-02-0--02-02-02-02-33-02-02-02-0------------|

Verse Interlude
G|-------------------------------------------------------------|
D|-----------------------------------------------------------2-|
A|-------------------------------------------------------------|
E|-02-02-02-02-3--02-02-02-02-0--02-02-02-02-33-02-02-02-02-0--|

Verse I-B
G|-------------------------------------------------------------|
D|-----------------------------------------------------------2-|
A|-------------------------------------------------------------| x 2
E|-02-02-02-02-3--02-02-02-02-0--02-02-02-02-33-02-02-02-02-0--|

Pre-Chorus
G|---------------|
D|---------------|
A|------3~-------| x 3
E|-5~--------1~--|

Chorus
G|----------------------------------|
D|----------------------------------|
A|-------3-3-3-3--------------------| x 4 then pause
E|-5-5-5---------1~--1-1-1-1-3-3-3--|

Post-Chorus
G|------------------------------------------------------|
D|---------------------------------------------------2--|
A|------------------------------------------------------|
E|-0222-0222-03-0222-0222-20-0222-0222-03-0222-0222-0---|

G|------------------------------|
D|------------------------------|
A|------------------------------|
E|-02-02-02-02-3--02-02-02-02-0-|

Verse II(same as Verse I-A)

Pre-Chorus (variation)
G|-----------------------------|
D|-----------------------------|
A|-----------------------------| x 2
E|-5-5-8-8-1~-----5~---8~---1~-|

G|-------------------|
D|-------------------|
A|-------------------|
E|-1/13--13--13--13--|

Chorus (same as before) x2

Post-Chorus (same as before)

Bridge
G|------------------------------------------------------|
D|------------------------------------------------------|
A|------------------------------------------------------|
E|-0222-0222-03-0222-0222-20-0222-0222-03-0222-0222-20--|

G|---------------------------|
D|-------------------------2-|
A|---------------------------|
E|-0222-0222-03-0222-0222-0--|

Outro (guitar only)

Not a terribly difficult song to play, now was it?
I think I might have missed a fill somewhere though.

SHORTENED TV VERSION

Intro I (guitar only) (shortened)

Intro II
G|-------------------------------------------------------------|
D|-----------------------------------------------------------2-|
A|-------------------------------------------------------------|
E|-02-02-02-02-3--02-02-02-02-0--02-02-02-02-33-02-02-02-02-0--|
                                                       (Played very fast)
G|--------------------------------------------------------------------|
D|--------------------------------------------------------2-6\4-2/4---|
A|--------------------------------------------------------------------|
E|-02-02-02-02-3--02-02-02-02-0--02-02-02-02-33-02-02-02-0------------|

Verse I-A
G|-------------------------------------------------------------|
D|-----------------------------------------------------------2-|
A|-------------------------------------------------------------|
E|-02-02-02-02-3--02-02-02-02-0--02-02-02-02-33-02-02-02-02-0--|
                                                       (Played very fast)
G|--------------------------------------------------------------------|
D|--------------------------------------------------------2-6\4-2/4---|
A|--------------------------------------------------------------------|
E|-02-02-02-02-3--02-02-02-02-0--02-02-02-02-33-02-02-02-0------------|

Verse Interlude (extended)
G|-------------------------------------------------------------|
D|-----------------------------------------------------------2-|
A|-------------------------------------------------------------|
E|-02-02-02-02-3--02-02-02-02-0--02-02-02-02-33-02-02-02-02-0--|

G|-------------------------------|
D|-----------------------------2-|
A|-------------------------------|
E|-02-02-02-02-3--02-02-02-02-0--|

Chorus (extended)
G|----------------------------------|
D|----------------------------------|
A|-------3-3-3-3--------------------| x 8
E|-5-5-5---------1~--1-1-1-1-3-3-3--|

And that's that.
Happy playing!

            
            
Suggest correction
Creating personal tab
Creating personal tab
You can edit any tab online and save it as your Personal.

You can edit, replace or remove any tab part or add personal notes – all changes will be seen only by you.

Personal tabs can be accessed anytime from any device, even offline.
Learn more »
Give kudos to tab author, rate the tab!
1 2 3 4 5
comments
print report bad tab
guest
You may want to rate the tab now too:
select rating
Wanna post a correction for this tab? Suggest correction