Oops, an error
Loading. Please wait.

A Long Way Home Tab

version 1
version 1

Acoustic

Whole song

1,281 views 1 this week
no commentswrite comment
1 2 3 4 5
1 last vote to show rating
add to favorites
launch autoscroll
font size
0
reset
how to read this tab
guitar tuner
Autoscroll
slow
fast
+/-
esc
set tempo
stop
Help us to improve Ultimate-Guitar.com Take our survey!
×
Author
Difficulty
intermediate
Dwight Yoakam
A Long Way Home-Acoustic


e|-------------------D-D-D-D-D-D------------Em-Em-Em-Em-Em-Em----------------|
B|-------------------D-D-D-D-D-D------------Em-Em-Em-Em-Em-Em----------------|
G|-------------------D-D-D-D-D-D------------Em-Em-Em-Em-Em-Em----------------|
D|-----0-2/4-2-0---0-D-D-D-D-D-D-2/4-2-0----Em-Em-Em-Em-Em-Em----------------|
A|-0-2-----------2-----------------------2--Em-Em-Em-Em-Em-Em----------------|
E|------------------------------------------Em-Em-Em-Em-Em-Em----------------|

e|-------------------------------------------------------D-D---------D-------|
B|-------------------------------------------------------D-D---------D-------|
G|-------------------------------------------------------D-D---------D-------|
D|-2/4-4-2-2-0-0---------------------------0-2/4-2-0---0-D-D-4P2P0---D-------|
A|-----------------0h2p0-0h2p0-0h2p0-0-0-2-----------2-------------0---------|
E|---------------3-----------------------------------------------------------|

D                            Em
Don't look inside don't look there

                G    A            D
cause you might find yourself somewhere

                       Em
walking round lost and alone

            G    A               D
without one clue its a long way home

e|-------------------D-D-D-D-D-D------------Em-Em-Em-Em-Em-Em----------------|
B|-------------------D-D-D-D-D-D------------Em-Em-Em-Em-Em-Em----------------|
G|-------------------D-D-D-D-D-D------------Em-Em-Em-Em-Em-Em----------------|
D|-----0-2/4-2-0---0-D-D-D-D-D-D-2/4-2-0----Em-Em-Em-Em-Em-Em----------------|
A|-0-2-----------2-----------------------2--Em-Em-Em-Em-Em-Em----------------|
E|------------------------------------------Em-Em-Em-Em-Em-Em----------------|

e|-------------------------------------------------------D-D---------D-------|
B|-------------------------------------------------------D-D---------D-------|
G|-------------------------------------------------------D-D---------D-------|
D|-2/4-4-2-2-0-0---------------------------0-2/4-2-0---0-D-D-4P2P0---D-------|
A|-----------------0h2p0-0h2p0-0h2p0-0-0-2-----------2-------------0---------|
E|---------------3-----------------------------------------------------------|

D                         Em
years and years is a long time

             G            A              D
to drag your heart across every rock you find

                                 Em
the hurt is deep and its pull is strong

                 G    A                   D 
but the passions short and its a long way home

Em                      G                D
oh and i can't take one single step for you

Em                       G                       A
but i might just help to find some small pathway through

e|-------------------D-D-D-D-D-D------------Em-Em-Em-Em-Em-Em----------------|
B|-------------------D-D-D-D-D-D------------Em-Em-Em-Em-Em-Em----------------|
G|-------------------D-D-D-D-D-D------------Em-Em-Em-Em-Em-Em----------------|
D|-----0-2/4-2-0---0-D-D-D-D-D-D-2/4-2-0----Em-Em-Em-Em-Em-Em----------------|
A|-0-2-----------2-----------------------2--Em-Em-Em-Em-Em-Em----------------|
E|------------------------------------------Em-Em-Em-Em-Em-Em----------------|

e|-------------------------------------------------------D-D---------D-------|
B|-------------------------------------------------------D-D---------D-------|
G|-------------------------------------------------------D-D---------D-------|
D|-2/4-4-2-2-0-0---------------------------0-2/4-2-0---0-D-D-4P2P0---D-------|
A|-----------------0h2p0-0h2p0-0h2p0-0-0-2-----------2-------------0---------|
E|---------------3-----------------------------------------------------------|

D                               Em
don't look back cause you might see

         G   A                D    
just how far all that used to be

                                  Em
just let your mind think on whats gone

                G    A                   D
and then you'll know that its a long way home

            G    A                   D
yeah you'll know that its a long way home

            G   A                   D
you'll find out that its a long way home

        Em    G                   A   D
aint no doubt that its a long way home


e|-----------------2---------------------------------------------------------|
B|-----------------3---------------------------------------------------------|
G|-----------------2---------------------------------------------------------|
D|-0---0-2/4-2-0---0---------------------------------------------------------|
A|---2-----------2-----------------------------------------------------------|
E|---------------------------------------------------------------------------|
Suggest correction
Give kudos to tab author, rate the tab!
1 2 3 4 5
comments
print report bad tab
guest
You may want to rate the tab now too:
select rating
Wanna post a correction for this tab? Suggest correction