Oops, an error
Loading. Please wait.

Honky Tonk Man Tab

version 1
version 1

Whole song

33,486 views 69 this week
1 commentread comment
1 2 3 4 5
accurate
x 7
add to favorites
launch autoscroll
font size
0
reset
how to read this tab
guitar tuner
Tab Pro tools
  • play this tab
  • loop segment
  • change instrument
  • show fretboard
  • metronome
×
Best way to learn
"Honky Tonk Man"
Autoscroll
slow
fast
+/-
esc
set tempo
stop
song honky tonk man
artist dwight yoakam
tabbed by alan culbert

     ----------------------------------------------------------|
     ----------------------------------------------------------|
     ----------------------------------------------------------|
     ----------------------------------------------------------|
     ---0-2-0--------0-2-0------0-2-0-77-55-2-4-2--------------|
     -4-------4-2--4-------4-2--------------------4b-4b-0------|

     -------------------------------------------------------------|
     -------------------------------------------------------------|
     -----------------------------------7-------------------------|
     -------------------------------7h9---7b-5--------------------|
     ---------2-4-2---2-------x2---------------7-7----------------|
     -0-4h3---------4---0--0--------------------------------------|


     -------------------------------------------------------------|
     -------------------------------------------------------------|
     -------------------------------------------------------------|
     -------------------------------------------------------------|
     ---0-2-0-------0-2-0-----0-2-0-77-55-2-4-2-------------------|
     -4-------4-2-4-------4-2-------------------0-4b-4b-0---------|

     when my moneys all gone im on the tellephone singin hey hey moma....

    verse

    B which is 2 on the a string then you play A half that time then play
               4
               4
 the same amout of measures as A x 2


then repeat the chorus and the then solo is

     -----------------------------------------------------------|
     -----------------------------------------------------------|
     -----------------------------------------------------------|
     ------------2-----------------2--x2------------------------|
     --------2-4------2------3-4-3-----------------7-77-77-9----|
     -0-4h3-------3h4---0------------------7-77--9--9--9--------|


     ---------------------------------------------------------------------|
     ---------------------------------------------------------------------|
     ---------------------------------------------------------------------|
     ---------------------------------------------------------------------|
     -7---77-------0-2-0----------0-2-0-----0-2-0-77-55-2-4-2-------------|
     ---9----9-7-4-------4-2--0-4-------4-2-------------------0-4b-4b-0---|
comments
print report bad tab
1 comment total.
0 reply
FL_Bob2002 wrote on February 11 2015, 09:02 pm

Its close but doesnt all go with the way they play it. the solo doesnt sound right either.
But i got a start on it tho, thanks

I want to post or [tab]
guest
You may want to rate the tab now too:
select rating
Please do not post tabs as comments. Select "correction" instead!