Oops, an error
Loading. Please wait.

South Of Cincinnati Tab

1,970 views 3 this week
no commentswrite comment
1 2 3 4 5
please rate
add to favorites
launch autoscroll
font size
0
reset
how to read this tab
guitar tuner
Autoscroll
slow
fast
+/-
esc
set tempo
stop
Help us to improve Ultimate-Guitar.com Take our survey!
×
Author
Intro : G C G

CHORUS :

       G         D       C     G
If you ever get south of Cincinnati
C               D            G     D    
Down where the dogwood trees grow
       G        D            C     G
If you ever get south of the Mason Dixon
       C         D            G     
To the home you left so long ago
       G         D           C    G
If you ever get south of the Ohio River
C          D           G     D    
Down where Dixieland begins
       G         D       C     G
If you ever get south of Cincinnati
C       D       G    C  G
I'll be yours again

                G              C            G
She pulled the letter from the pages of her Bible
      G               D               G
And a rose pressed inside the Book of Luke
             G                      C               G
For fourteen years she'd write each day but keep it hidden
            G             D                  G
Refused to even speak his name but still she wrote

Chorus

Instrumental - 

e|------------3--|-7--------7h8h7-|-5---------5h7h5-|-3-------3-----|
B|------3--5-----|----------------|-----------------|------------5--|
G|---------------|----------------|-----------------|---------------|
D|---------------|----------------|-----------------|---------------|
A|---------------|----------------|-----------------|---------------|
E|---------------|----------------|-----------------|---------------|

e|------3--------|-------3--------|--2--3-----3-5-7-|-10--9-10----3-|
B|--3-------3----|--5--------3----|-----------------|----------3-5--|
G|---------------|----------------|-----------------|---------------|
D|---------------|----------------|-----------------|---------------|
A|---------------|----------------|-----------------|---------------|
E|---------------|----------------|-----------------|---------------|

e|-7--------7h8h7-|-5---------5h7h5-|-3-------3-------|
B|----------------|-----------------|------------5----|
G|----------------|-----------------|-----------------|
D|----------------|-----------------|-----------------|
A|----------------|-----------------|-----------------|
E|----------------|-----------------|-----------------|

e|------3--------|-------3--------|--2-----3----5---|-5h7h5--3------|
B|--3-------3----|--5--------3----|-----------------|---------------|
G|---------------|----------------|-----------------|---------------|
D|---------------|----------------|-----------------|---------------|
A|---------------|----------------|-----------------|---------------|
E|---------------|----------------|-----------------|---------------|

repeat Verse, Chorus and Instrumental

Peace out x
Suggest correction
What's this?
You can suggest a correction to this tab. Community and Mods will review your correction and vote to approve or reject it.
comments
We did not receive enough feedback on this tab! Please rate:
print report bad tab
1 2 3 4 5
guest
You may want to rate the tab now too:
select rating
Please do not post tabs as comments. Select "correction" instead!