Oops, an error
Loading. Please wait.

Absolute Defiance Tab

996 views 1 this week
no commentswrite comment
1 2 3 4 5
please rate
add to favorites
launch autoscroll
font size
0
reset
how to read this tab
guitar tuner
Autoscroll
slow
fast
+/-
esc
set tempo
stop
Help us to improve Ultimate-Guitar.com Take our survey!
×
Author
Difficulty
Tuning
intermediate
C G C F A D
"Absolute Defiance"
Album: Killing On Adrenaline (1998)

Riff 1 (x2)
-|-------------------------------|------------------------------|
-|-------------------------------|------------------------------|
-|-------------------------------|------------------------------|
-|-------------------------------|------------------------------|
-|-3-6-5---3-6-5---3--6-5--2-2-2-|-3-6-5---3-6-5---3--6-5--2--2-|
-|-1-4-3---1-4-3---1--4-3--0-0-0-|-1-4-3---1-4-3---1--4-3--0--0-|
   .       .       .       . . .   .       .       .       .  .

Riff 2a (x3)                      Riff 2b
-|-------------------------------|------------------------------|
-|-------------------------------|------------------------------|
-|-------------------------------|------------------------------|
-|-------------------------------|------------------------------|
-|-----------------3--6-5--2-2-2-|-----------------3--6-5--2222-|
-|-1-4-3---1-4-3---1--4-3--0-0-0-|-1-4-3---1-4-3---1--4-3--0000-|
                           . . .                           ....

Riff 3a                      Riff 3b
-|--------------------------|------------------------------|
-|---7-----7-----7--10-9/10-|---7-----7-----7-10--9/109/10-|
-|-5---5-----5--------------|-5----------------------------|
-|-4-----------4----8--7/8--|-4---5-----5-----8---7/8-7/8--|
-|-3----------------7--6/7--|-3-----4-----4---7---6/7-6/7--|
-|--------------------------|------------------------------|

Play Riff 3a
Play Riff 3b
Play Riff 3a

Riff 3c
-|--------------------------|
-|---7-----7-----7----------|
-|-5---5-----5--------------|
-|-4-----------4------------|
-|-3----------------6-5-4-3-|
-|------------------4-3-2-1-|
                    . . . .

Play Riff 1 (x2)
Play Riff 3a
Play Riff 3b
Play Riff 3a
Play Riff 3b

Riff 4a (one guitar only)
|--------------------------------------------------------|
|--------------------------------------------------------|
|--------------------------------------------------------|
|--------------------------------------------------------|
|-------------66----------66-----------------------------|
|-440011111111--0011111111--0011113333444433110011-4-3-1-|

|-----------------------------------------|
|-----------------------------------------|
|-----------------------------------------|
|-----------------------------------------|
|------------66----------66---------------|
|440011111111--0011111111--00111133334444-|


pause

Riff 4b (x4)
|---------------------------------------------------------|
|---------------------------------------------------------|
|---------------------------------------------------------|
|---------------------------------------------------------|
|-------------66----------66------------------------------|
|-440011111111--0011111111--0011113333444433110011-443311-|

Riff 5a (x3)       Riff 5b
|-----------------|-----------|
|-----------------|-----------|
|-----------------|-----------|
|-----------------|-----------|
|-----------------|-6\5-6\5-6-|
|-000-000-000-000-|-4\3-4\3-4-|
  ... ... ... ...

Play Riff {5a(x3),5b}

Riff 6a
|----------------------------------|
|----------------------------------|
|----------------------------------|
|-2222----2222----6666----6666-----|
|-----3344----3344----7788----7788-|
|----------------------------------|

Play Riff 4b (x2)
Play Riff {5a(x3),5b} (x2)

Riff 6b (x4)
|---------------------|
|---------------------|
|---------------------|
|-222--222--666--666--|
|----3----3----7----7-|
|---------------------|
  .... .... .... ....

Riff 7 (x6)
|----------------------------------|
|----------------------------------|
|--t12p7p4-----------------t12p9p5-|
|------------------t12p7p4---------|
|----------t12p7p4-----------------|
|----------------------------------|

Riff 8
|--------------------|
|--------------------|
|--------------------|
|--------------------|
|-55-3-5-7-55-3-55-3-|
|-33-1-3-5-33-1-33-1-|
  .. . . . .. . .. .

Pause

Play Riff 8 (x20)

ENDING RIFFS:
Riff 9
|-------------|-------------|-------------|---------|
|-------------|-------------|-------------|---------|
|-^-----------|-^-----------|-^-----------|---------|
|-3-----------|-5-----------|-3-----------|---------|
|---5-5-3-5-3-|---5-5-3-5-3-|---5-5-3-5-3-|-7-5-3-3-|
|---3-3-1-3-1-|---3-3-1-3-1-|---3-3-1-3-1-|-5-3-1-1-|
    . . . . .     . . . . .     . . . . .   . . . .

Play Riff 7 (x2)
Play Riff 9
Play Riff 7 (x2)

END
Suggest correction
What's this?
You can suggest a correction to this tab. Community and Mods will review your correction and vote to approve or reject it.
comments
We did not receive enough feedback on this tab! Please rate:
print report bad tab
1 2 3 4 5
guest
You may want to rate the tab now too:
select rating
Please do not post tabs as comments. Select "correction" instead!