Oops, an error
Loading. Please wait.

Bathe In Entrails Tab

830 views 6 this week
no commentswrite comment
1 2 3 4 5
please rate
add to favorites
launch autoscroll
font size
0
reset
how to read this tab
guitar tuner
Autoscroll
slow
fast
+/-
esc
set tempo
stop
Help us to improve Ultimate-Guitar.com Take our survey!
×
Author
Difficulty
Tuning
intermediate
C G C F A D
Band:  Dying Fetus
Album: Infatuation with Malevolence
Song:  Bathe in Entrails

.  - palm mute           /  - slide up to
  - slide down to       ~  - vibrato
h  - hammer on           b  - Bend
p  - pull off            Suffixes for bend
t  - tap                 f  - full bend    h - half bend
ph - pinched harmonic    q  - quarter bend t - tap bend
*  - see comment         ^  - Hold bend    r release bend
x  - Stuccatto           ~  - vibrato bend
,  - slight palm mute    () - ghost note, sustained note
"  - tremolo note        <> - Trill

riff 1
|----------------------------------------------------------------|
|----------------------------------------------------------------|
|---------------------------7------------------------------------|
|--2-------5-4---8----5-4---7-----2--------5-4---8----54-43------|
|--2-------5-4---8----5-4---5-----2--------5-4---8----54-43------|
|--0-------3-2---6----3-2---------0--------3-2---6----32-21------|
                                                      .. ..


riff 2A
|----------------------------------------------------------------|
|----------------------------------------------------------------|
|----------------------4"----------------------------------------|
|-------------------2"-------------------------------------------|
|----------------------------------------------------------------|
|-0"-1"-4"-1"-0"-1"----------------------------------------------|


riff 2B
|-----------------------------------------------------------------|
|-----------------------------------------------------------------|
|---------------3-----3-------------------------------------------|
|-2-3-6-3-2-3--/----/---------------------------------------------|
|-2-3-6-3-2-3-/----/----------------------------------------------|
|-0-1-4-1-0-1-4-3-1-3-1-0-----------------------------------------|
              . . . . . .


riff 3
|----------------------------------------------------------------|
|----------------------------------------------------------------|
|----------------------------------------------------------------|
|---------7"----------5"-----------------------------------------|
|------6"----------4"--------------------------------------------|
|-5"----------3"-------------------------------------------------|

|------------------|
|------------------|
|------------------|
|--5-4-8-9---------|
|--5-4-8-9---------|
|--3-2-6-7---------|
   . . . .

riff 4
|----------------------------------------------------------------|
|----------------------------------------------------------------|
|----------------------------------------------------------------|
|----------------------------------------------------------------|
|-2-2-2-2-2-2-2-2-5---4---7---9----------------------------------|
|-0-0-0-0-0-0-0-0-3---2---6---7----------------------------------|
  . . . . . . . .


riff 5
|----------------------------------------------------------------|
|----------------------------------------------------------------|
|----------------------------------------------------------------|
|-----------------------------4-4--------------------------------|
|-2-2-3-3-2-2-5-5-2-2-3-3-2-2-2-2--------------------------------|
|-0-0-1-1-0-0-3-3-0-0-1-1-0-0------------------------------------|
  . . . . . . . . . . . . . . . .


riff6                               x3                       x1
|------------------- ------------------- ------------------------|
|------------------- ------------------- ------------------------|
|------------------- ------------------- ------------------------|
|------------------- ------------------- ------------------------|
|-3---5---6-----5h6- --5-5-5-5-5-5-65-- --5-5-5-5-5-5-6-5--6-5---|
|-1-0-3-0-4-0-0----- --3-3-3-3-3-3-43-- --3-3-3-3-3-3-4-3--4-3---|
    .   .   . .        . . . . . .         . . . . . .


riff7                                   last time
|----------------------------------- -----------------------------|
|----------------------------------- -----------------------------|
|----------------------------------- -----------------------------|
|----------------------------------- -----------------------------|
|-4-4-----5-5-----4-4--------------- -----------------------------|
|-----3-3-----3-3-----3-3-2-2-3-3--- --3-3-3-3-3-3-3-3------------|
  . . . . . . . . . . . . . . . .      . . . . . . . .

riff8
|----------------------------------------------------------------|
|----------------------------------------------------------------|
|----------------------------------------------------------------|
|---------9-9-----8-8-8------------------------------------------|
|-2-2-2-2-7-7-9-9-6-6-6-5-4-3-4-5--------------------------------|
|-0-0-0-0-----7-7-------3-2-1-2-3--------------------------------|
  . . . . . . . . . . . . . . . .

riff9
|----------------------------------------------------------------|
|----------------------------------------------------------------|
|----------------------------------------------------------------|
|----------------------------------------------------------------|
|-2--2--3--3--2-2-2-3-3-3----------------------------------------|
|-0--0--1--1--0-0-0-1-1-1----------------------------------------|
  .  .  .  .  . . . . . .
Suggest correction
What's this?
You can suggest a correction to this tab. Community and Mods will review your correction and vote to approve or reject it.
comments
We did not receive enough feedback on this tab! Please rate:
print report bad tab
1 2 3 4 5
guest
You may want to rate the tab now too:
select rating
Please do not post tabs as comments. Select "correction" instead!