Oops, an error
Loading. Please wait.

Bringing Back The Glory Bass Tab

version 1
version 1

Whole song

Interactive

245 views 1 this week
no commentswrite comment
1 2 3 4 5
3 more votes to show rating
add to favorites
launch autoscroll
font size
0
reset
guitar tuner
Autoscroll
slow
fast
+/-
esc
set tempo
stop
Help us to improve Ultimate-Guitar.com Take our survey!
×
Author
Difficulty
Tuning
novice
C F A# D# G C
Tabbed by 6METAL6BASSIST6

Email: Petergriffinav@gmail.com

                   C tuning.
Fb|-------------------------------------------------------------|
Cb|-------------------------------------------------------------| x6
Gb|----6-----5-----8-----7-----5-6-----6-----5-----8-----7-----6|
Db|0-0---0-0---0-0---0-0---0-0-----0-0---0-0---0-0---0-0---0-0--|

        Bringing back the glory.
Fb|-----------------------------------|
Cb|-----------------------------------| x2
Gb|5---3--6---8--5--5-----------------|
Db|--------------------1-0-0-0-1-0-0-0|

Fb|---------------------------------------------------------------|
Cb|---------------------------------------------------------------| x2
Gb|5-5-5-5-5-5-3-3-6-6-6-6-6-6-8-8-5-5-5-5-5-5-5-5----------------|
Db|------------------------------------------------1-0-0-0-1-0-0-0|

Fb|-|   Fb|--------------------|
Cb|-|   Cb|--------------------|
Gb|-|   Gb|5--6-5-3-5--5--5-6-8|
Db|0|   Db|--------------------|

Fb|-----------------------------------------------------------|
Cb|-----------------------------------------------------------| x4
Gb|--------5--------------6-5-3-5---------5--------------5-6-8|
Db|0-0-0-0----0-0-0-0-0-0---------0-0-0-0----0-0-0-0-0-0------|

   Play the first three riffs like in the beginning and that last 0
                          then go to this.

  2:28
Fb|-----|   Fb|---------------------------------------------------------|
Cb|-----|   Cb|---------------------------------------------------------| x6 
Gb|-----|   Gb|---------------------------------------------------------|
Db|6-5-3|   Db|0--0-0-3-5--6-5-0-3-0-3-5-6--0--0-0-3-5--6-5-0-3-0-6-5-3-|

Fb|-|   Fb|--------------------|    
Cb|-|   Cb|--------------------|
Gb|-|   Gb|5--6-5-3-5--5--5-6-8|
Db|0|   Db|--------------------|

Fb|-----------------------------------------------------------|
Cb|-----------------------------------------------------------| x2
Gb|--------5--------------6-5-3-5---------5--------------5-6-8|
Db|0-0-0-0----0-0-0-0-0-0---------0-0-0-0----0-0-0-0-0-0------|
Suggest correction
Give kudos to tab author, rate the tab!
1 2 3 4 5
comments
print report bad tab
guest
You may want to rate the tab now too:
select rating
Wanna post a correction for this tab? Suggest correction