Oops, an error
Loading. Please wait.

Epidemic Of Hate Tab

5,293 views 1 this week
4 commentsread comments
1 2 3 4 5
excellent!
x 4
add to favorites
launch autoscroll
font size
0
reset
how to read this tab
guitar tuner
Tab Pro tools
  • play this tab
  • loop segment
  • change instrument
  • show fretboard
  • metronome
Autoscroll
slow
fast
+/-
esc
set tempo
stop
Contributor
TUNING: C# [C#,F#,B,e,g#,c#]
EPIDEMIC OF HATE-DYING FETUS

[Intro] (x3)
-|------------------------------|    -|------------------------------|
-|------------------------------|    -|------------------------------|
-|-4----------------------------|    -|-4----------------------------|
-|-2----3-3-3--3-2-3--3-2-3-2-3-|    -|-2--2-3-3-3--3-2-3--3-6-5-6-5-|
-|-2----3-3-3--3-2-3--3-2-3-2-3-|    -|-2--2-3-3-3--3-2-3--3-6-5-4-5-|
-|----0-1-1-1--1-0-1--1-0-1-0-1-|    -|----0-1-1-1--1-0-1--1-4-3-2-3-|
      . . . .  . . .  . . . . .            . . . .  . . .  . . . . .

[Riff 1 (x2)]
||-------------------------------|-------------------------------||
||o------------------------------|------------------------------o||
||--4----------------------------|-4-----------------------------||
||--2----3-3-3--3-2-3--3-2-3-2-3-|-2--2-3-3-3--3-2-3--3-6-5-6-5--||
||o-2----3-3-3--3-2-3--3-2-3-2-3-|-2--2-3-3-3--3-2-3--3-6-5-4-5-o||
||-----0-1-1-1--1-0-1--1-0-1-0-1-|----0-1-1-1--1-0-1--1-4-3-2-3--||
       . . . .  . . .  . . . . .      . . . .  . . .  . . . . .

[Riff 1 /1 bar only/ (x2)]

[Outro 1]
-|-----------------|
-|-----------------|
-|-4---------------|
-|-2---3---4---5---|
-|-2---3---4---5---|
-|-----1---2---3---|

[Riff 2]
-|---------------------------|---------------------------|-
-|---------------------------|---------------------------|-
-|---------------------------|---------------------------|-
-|---------------------------|-------------3----3----3/4-|-
-|-4-4-5\4-----3----4----4/5-|-4-4-5\4-----1----1----1/2-|-
-|-2-2-3\2-0-0-1--0-2--0-2/3-|-2-2-3\2-0-0----0----0-----|-
           . .    .    .               . .    .    .

-|---------------------------|----------------------|
-|---------------------------|----------------------|
-|---------------------------|----------------------|
-|---------------------------|-------------3--3--4--|
-|-4-4-5\4-----3----4----4/5-|-4-4-5\4-----1--1--2--|
-|-2-2-3\2-0-0-1--0-2--0-2/3-|-2-2-3\2-0-0----------|
           . .    .    .               . . .  .

[RIFF 2]

[Riff 3 (x4)]
||---------------------------------|---------------------------------||
||o--------------------------------|--------------------------------o||
||---------------------------------|---------------------------------||
||---------------------------------|--------------------------6-6-6--||
||o-----4-4-5\4---3----------6-6-6-|-----4-4-5\4---3----------4-4-4-o||
||--2-2-2-2-3\2-0-1--1-1-1-1-4-4-4-|-2-2-2-2-3\2-0-1--1-1-1-1--------||
    . .              . . . .         . .         .    . . . .

[RIFF 2]
[RIFF 3 (x3)]

[Outro 2]
-|--------------------------------|---------------------------------|
-|--------------------------------|---------------------------------|
-|--------------------------------|---------------------------------|
-|--------------------------------|---------------------------------|
-|-----4-4-5\4---3----------6-6-6-|-----4-4-5\4-----9-8-7-6-5-4-3-2-|
-|-2-2-2-2-3\2-0-1--1-1-1-1-4-4-4-|-2-2-2-2-3\2-0-0-7-6-5-4-3-2-1-0-|
   . .              . . . .         . .         . . . . . . . . . .

[Riff 4 (x8)]
||------------------------------------||
||o----------------------------------o||
||------------------------------------||
||------------------------------------||
||o-5\4-4-4-4/5-5-5------------------o||
||--3\2-2-2-2/3-3-3-000-0-000-0-0-3~--||
                    ... . ... . .

[Riff 5 (x4)]
||------------------------------------|-----------------------------||
||o-----------------------------------|----------------------------o||
||------------------------------------|-----------------------------||
||------------------------------------|-----------------------------||
||o-5\4-----5/6---4----4------5/6-----|-5-4-5-4-5/6-------^-----^--o||
||--3\2-0-0-3/4-0-2--0-2--0-0-3/4-0-0-|-3-2-3-2-3/4-0-0-0-1~--0-2~--||
        . .     .    .    . .     . .   . . . .     . . .     .

[Riff 6 /under solo/ (x2)]
||----------------------------------||
||o--------------------------------o||
||----------------^-----------------||
||--------------^-5-----------------||
||o-5\4-----5/6-5----------3----4--o||
||--3\2-0-0-3/4-----[x3]-0-1--0-2---||
       . .              .    .

[Riff 7 (x2)]
||------------------------------|-[ending 1]----------------||
||o-----------------------------|-----------------------^--o||
||------------------------------|-----------------------6~--||
||------------------4"----------|-----------------7"5"4"----||
||o-------------------5"2"------|--------------------------o||
||--5-2-0-0-2-1-0-0-------3p4p3-|-5-4-0-0-2-1-0-0-----------||
    . . . . . . . .               . . . . . . . .

-|-[ending 2]-------|
-|------------------|
-|-4"3"--3"2"----^--|
-|-----5"----4"3"4~-|
-|------------------|
-|------------------|

[Riff 8 (x2)]
||------------------------------------||
||o----------------------------------o||
||------------------------------------||
||--------------------------------^---||
||o----------------------4--5--3--1~-o||
||--5-2-0-0-7-4-0-0-(x3)-2--3--1------||
    . . . . . . . .      .  .  .

[RIFF 7]
[RIFF 8 (x2)]

[Riff 9 (x3)]
||----------------------------|-------------------------------||
||o---------------------------|------------------------------o||
||----------------------------|-------------------------------||
||--4"-----------6"----6h7p6~-|-4"-----------6---6h7p6--------||
||o----5"-2"-4h5----7"--------|----5"-2"-4h5---7-------7-6---o||
||----------------------------|----------------------------7--||

[Outro 3]
-|---------------------------|---------------------|
-|---------------------------|---------------------|
-|---------------------------|---------------------|
-|-4"-----------6"----6h7p6~-|-4-2-----------------|
-|----5"-2"-4h5----7"--------|-----5-4-2-----2-----|
-|---------------------------|-----------5-4-0-----|
                               . . . . . . . .
[Riff 10 (x3)]
||----------------------------------|------------------------------||
||o---------------------------------|-----------------------------o||
||----------------------------------|------------------------------||
||----------------------------------|------------------------------||
||o-------------------1~------------|-------------------2------3--o||
||--4-3-4-3-1~--4-3-4-----0-4-3-4-1-|-4-3-4-3-4~--3-1-3-0--0-3-1---||
    . . . .     . . .     . . . . .   . . . .     . . .    . .

[Outro 4]
-|---------------------------------|---------------------|
-|---------------------------------|---------------------|
-|---------------------------------|---------------------|
-|---------------------------------|---------------------|
-|-------------------1~------------|-----------------2---|
-|-4-3-4-3-1~--4-3-4-----0-4-3-4-1-|-4-3-4-3-4~--3-1-0---|
   . . . .     . . .     . . . . .   . . . .     . . .


[Riff 11a (x2)]
||--------------------------------|----------------------------||
||o-------------------------------|---------------------------o||
||--------------------------------|----------------------------||
||-------------------3------------|----------------------------||
||o-6-5-6-5-3--6-5-6-1----6-5-6-3-|-6-5-6-5-6--5-3-5-2-----3--o||
||--4-3-4-3-1--4-3-4----0-4-3-4-1-|-4-3-4-3-4--3-1-3-0---0-1---||
    . . . .    . . .    . . . . .   . . . .    . . .     .

Riff 11b (x3)
||--------------------------------|----------------------------||
||o-------------------------------|---------------------------o||
||--------------------------------|----------------------------||
||-------------------3------------|------------------------3"--||
||o-6-5-6-5-3--6-5-6-1----6-5-6-3-|-6-5-6-5-6--5-3-5-2--------o||
||--4-3-4-3-1--4-3-4----0-4-3-4-1-|-4-3-4-3-4--3-1-3-0---0-----||
    . . . .    . . .    . . . . .   . . . .    . . .     .

[Ending]
-|-------------------------------|------------------------------------
-|-------------------------------|------------------------------------
-|-------------------------------|------------------------------------
-|------------------3------------|------------------------3==..-------
-|-6-5-6-5-3--6-5-6-1----6-5-6-3-|-6-5-6-5-6--5-3-5-2-----3====.....--
-|-4-3-4-3-1--4-3-4----0-4-3-4-1-|-4-3-4-3-4--3-1-3-0---0-1=======..--
   . . . .    . . .    . . . . .   . . . .    . . .     .
comments
print report bad tab
4 comments total. Showing first comments.
0 reply
avensus wrote on June 19 2006, 10:28 am

Despite being a simple song, it sounded horrndously tough to tab due to the iincredible amout of distortion. I salute you on a fine tab.

0 reply
Talli[guit]a wrote on January 26 2007, 03:05 am

Fucking awsome tab dude... It sounds 100%
Nice work!

0 reply
slayerofsouls wrote on March 22 2008, 12:37 am

damn i never managed to make heads or tails of this song cuz of the distortion awesome tab

I want to post or [tab]
guest
You may want to rate the tab now too:
select rating
Please do not post tabs as comments. Select "correction" instead!