Oops, an error
Loading. Please wait.

Forced Eluminations Tab

247 views 1 this week
no commentswrite comment
1 2 3 4 5
please rate
add to favorites
launch autoscroll
font size
0
reset
how to read this tab
guitar tuner
Tab Pro tools
  • play this tab
  • loop segment
  • change instrument
  • show fretboard
  • metronome
Autoscroll
slow
fast
+/-
esc
set tempo
stop
Contributor
Difficulty
intermediate
                            "Forced Eluminations"
                     From album: "Stop At Nothing"
                     Copyright RELAPSE Records 2003 ©
                     Transcribed by: Yura Kowalchuk
                     Contact:[yura_kowalchuk@mail.ru]
                             [yura@grindcore.net]
                    http://www.blood-scrapes.nm.ru
                    http://brutaltabs.musica.mustdie.ru

                            TABULATURE LEGEND:
                   " - tremolo             h - hammer on           
                   ~ - vibrato             \ - slide down
                   p - pull off            / - slide down
                  tr - trill               ^ - pinch harmonics     
                   = - sustained note      b - bend string         
                p.m. - palm muting         t - tapping
                           <> - natural harmonic

TUNING: C# [C#,F#,B,e,g#,c#]

[Part 1 (x3)]
||----------------------|---------------------------|-
||----------------------|---------------------------|-
||----------------------|---------------------------|-
||----------------------|---------------------------|-
||-2--2--4----8----5----|-4--5--4-------------5--4--|-
||-0--0--2----6----3----|-2--3--2----00001122-3--2--|-
   .  .                   .  .       ........ .  .

-|---------------------------------||
-|---------------------------------||
-|---------------------------------||
-|---------------------------------||
-|----------5--4-----------5--4----||
-|-00001122-3--2--00001122-3--2----||
   ........ .  .  ........ .  .

[Outro]
|------------|-----------|---------|
|------------|-----------|---------|
|------------|-----------|---------|
|------------|-----------|---------|
|-2--2--4----|-8----5----|-4--5----|
|-0--0--2----|-6----3----|-2--3----|
  .  .                     .  .

[Part 2]
|-------------------------------|----------------------------|-
|-------------------------------|----------------------------|-
|-------------------------------|----------------------------|-
|-------------------------------|----------------------5--4--|-
|----------5--4-----------6--5--|-3-3----2-2----1-1----3--2--|-
|-00001122-3--2--11112233-4--3--|-----4------3------2--------|-
  ........ .  .  ........ .  .    . . .  . . .  . . .  .  .

-|-------------------------------|----------------------------|
-|-------------------------------|----------------------------|
-|-------------------------------|----------------------------|
-|-------------------------------|----------------------3--6--|
-|----------5--4-----------6--5--|-3-3----2-2----1-1----1--4--|
-|-00001122-3--2--11112233-4--3--|-----4------3------2--------|
  ........ .  .  ........ .  .    . . .  . . .  . . .  .  .

[Outro]
-|---------------|--------------|---------------|--------------|
-|---------------|--------------|---------------|--------------|
-|---------------|--------------|---------------|--------------|
-|---------------|--------------|---------------|--------------|
-|-3-3----2-2----|-1-1----4--3--|-3-3----2-2----|-1-1----5--4--|
-|-----4------3--|-----2--2--1--|-----4------3--|-----2--3--2--|
   . . .  . . .    . . .  .  .    . . .  . . .    . . .  .  .

[PART 2 (x2)] [PART 2 only first 2 bars] [OUTRO]

[Part 3 (x8)]
||------------------------------------------------||
||------------------------------------------------||
||-----------------------------------------7h10p7-||
||----------2h5p2-------------------7h10p7--------||
||------------------------------------------------||
||-00000000-------00000-3h4p3-00000---------------||

[Part 4 (x4)]
||----------------------------------|-----------------------------||
||----------------------------------|-----------------------------||
||----------------------------------|-----------------------------||
||----------------------------------|-----------------------------||
||---------5555--------5555---------|-6-6-6-6--6--6-7-7-7-7--7--7-||
||-22223333----33332222----33332222-|-5-5-5-5--5--5-6-6-6-6--6--6-||

[Part 5(x2)]
||----------------------------------|----------------------------------|-
||----------------------------------|----------------------------------|-
||----------------------------------|----------------------------------|-
||----------------------------------|-----------------33333333---------|-
||-----3333--------------------3333-|----------------------------------|-
||-0000----44443333666644443333-----|-4444444444433333--------44443333-|-

-|----------------------------------|----------------------------------||
-|----------------------------------|----------------------------------||
-|----------------------------------|----------------------------------||
-|----------------------------------|----------------------------------||
-|-----3333--------------------3333-|------------33333-----------------||
-|-1111----44443333666644443333-----|-44444444444-----3333333344443333-||

[PART 4 (x4)]

[Outro 2]
||-----------------------|-------------------------------||
||-----------------------|-------------------------------||
||-----------------------|-------------------------------||
||-----------------------|-------------------------------||
||-2-2-2-2----2-2-2-2----|-4--3--------------------------||
||-0-0-0-0----0-0-0-0----|-2--1--0-0-0-3-3-3-2-2-2-1-1-1-||
   . . . .    . . . .      .  .  . . . . . . . . . . . .

[Part 6 /under solo/ (x4)]
||-----------------------------------|----------------------------------||
||-----------------------------------|----------------------------------||
||-----------------------------------|-----------------------------^----||
||-----------------------------------|-----------------3tr6--------2~~--||
||-2---3---5---5-3---------3-5---3---|-2---3---5---5-3-------2tr3-------||
||-0-0-1-0-3-0-3-1-0-0-0-0-1-3-0-1-0-|-0-0-1-0-3-0-3-1------------------||
     .   .   .     . . . .     .   .     .   .   .

[OUTRO (x3)]

...continue
|-----------------------|------------|
|-----------------------|------------|
|-----------------------|------------|
|-----------------------|------------|
|-2-2-2-2----2-2-2-2----|-4--3--6----|
|-0-0-0-0----0-0-0-0----|-2--1--4----|
  . . . .    . . . . 

[Part 7 (x2)]
||------------------------[x3]-|------------------------||
||-----------------------------|------------------------||
||-----------------------------|------------------------||
||-----------------------------|------------------------||
||-3222-444-333-222-333-222-6--|-3222-444-333-222-6--7--||
||-1000-222-111-000-111-000-4--|-1000-222-111-000-4--5--||
   .... ... ... ... ... ...      .... ... ... ...

[PART 3 (x8)]

[Ending]
|-------------------------------------------|
|-------------------------------------------|
|-------------------------------------------|
|----------2h5p2-----33333333---------------|
|-------------------------------------2-----|
|-00000000------00000--------44444444-0-----|
                                      .

END OF SONG 
comments
We did not receive enough feedback on this tab! Please rate:
print report bad tab
1 2 3 4 5
I want to post or [tab]
guest
You may want to rate the tab now too:
select rating
Please do not post tabs as comments. Select "correction" instead!