Oops, an error
Loading. Please wait.

Gorehog Tab

149 views 1 this week
no commentswrite comment
1 2 3 4 5
please rate
add to favorites
launch autoscroll
font size
0
reset
how to read this tab
guitar tuner
Tab Pro tools
  • play this tab
  • loop segment
  • change instrument
  • show fretboard
  • metronome
×
Best way to learn
"Gorehog"
Autoscroll
slow
fast
+/-
esc
set tempo
stop
Contributor
Dying Fetus
History Repeats
Gorehog (Broken Hope Cover)

.  - palm mute
\  - slide down to
/  - slide up to
h  - hammer on
p  - pull off
t  - tap
ph - pinch harmonic
~  - vibrato
b  - bend
r  - release bend
tr - trill
*  - comment

Tuning: C# F# B E G# C#

Guitar I - John Gallagher (Right channel)
Guitar II - John Gallagher (Left channel)


----------------------------------------
These guys totally brutalized this song,
check it out.
----------------------------------------


Figure 1A x2
|-----------------------|
|-----------------------|
|-----------------------|
|-----------------------|
|-2---3-4-3---2---3-6-3-|
|-0---1-2-1---0---1-4-1-|
  .   . . .   .   . . .



Figure 1B x3
|-------------------------------------------------------|
|-------------------------------------------------------|
|-------------------------------------------------------|
|-------------------------------------------------------|
|----------------------3-4-3----------------------3-6-3-|
|-00000000000000000000-1-2-1-00000000000000000000-1-4-1-|
  .................... . . . .................... . . .



Figure 1C x1
|-------------------------------------------------|
|-------------------------------------------------|
|-------------------------------------------------|
|-------------------------------------------------|
|----------------------3-4-3----------------------|
|-00000000000000000000-1-2-1-00000000000000000000-|
  .................... . . . ....................



Figure 1D x4
|-------|
|-------|
|-------|
|-----3-|
|-3-5-1-|
|-1-3---|
  . . .



Figure 2 x6
|-----------------------------------| * On 6th time slowly
|-----------------------------------|   bend up the last chord
|-----------------------------------|   using a whammy bar
|---------------------------------3-|
|----------2222---------------3-5-1-|
|-33333333------3333-22222222-1-3---|
                              . .

Guitar II plays this on the first two times
|-----------------------------------
|-----------------------------------
|-----------------------------------
|-----------------------------------
|-5---------------------------------
|-3---------------------------------
  .

------------------------------------|
------------------------------------|
------------------------------------|
-----------4----------------------3-|
--5--------2----4-------------3-5-1-|
--3-------------2-------------1-3---|
  .        .    .             . . 



Figure 3 x1
|---------|
|---------|
|---------|
|---------|
|-6-5-3-5-|
|-4-3-1-3-|



Figure 4 x3
|-----------------------------------------------------------------|
|-----------------------------------------------------------------|
|-----------------------------------------------------------------|
|---------------3---------------------------------3---------------|
|-2---2-2-5\4---1---2-2-2-2-2-4-3---2---2-2-5\4---1---2-2-2-4-5-3-|
|-0---0-0-3\2-0-----0-0-0-0-0-2-1---0---0-0-3\2-0-----0-0-0-2-3-1-|
      . .           . . . . . . .       . .           . . .  

Guitar II plays this on first time
|-----------------------------------------------------------------|
|-----------------------------------------------------------------|
|-----------------------------------------------------------------|
|-----------------------------------------------------------------|
|-2---------------------------4-3---2-----------------------4-5-3-|
|-0---------------------------2-1---0-----------------------2-3-1-|
                              . .   .



Figure 5 x4 
|---------------------------------|* Under solo
|---------------------------------|
|---------------------------------|
|---------------------------------|
|-2---2-2-2-2-2-3-2-2-2-2-2-2-3-6-|
|-0---0-0-0-0-0-1-0-0-0-0-0-0-1-4-|                      
      . . . . .   . . . . . .




Figure 6 x5
|-----------------------------------------------------------------|
|-----------------------------------------------------------------|
|-----------------------------------------------------------------|
|---------------3---------------------------------3---------------|
|-2---2-2-5\4---1---2-2-2-2-2-4-3---2---2-2-5\4---1---2-2-2-4-5-3-|
|-0---0-0-3\2-0-----0-0-0-0-0-2-1---0---0-0-3\2-0-----0-0-0-2-3-1-|
      . .           . . . . . . .       . .           . . .  

Guitar II plays this on first time
|-----------------------------------------------------------------|
|-----------------------------------------------------------------|
|-----------------------------------------------------------------|
|-----------------------------------------------------------------|
|-2---------------------------------------------------------4-5-3-|
|-0---------------------------------------------------------2-3-1-|

Play Figure 1A x2

End the song with this
|---|
|---|
|---|
|---|
|-2-|
|-0-|
  .

DONE!
comments
We did not receive enough feedback on this tab! Please rate:
print report bad tab
1 2 3 4 5
I want to post or [tab]
guest
You may want to rate the tab now too:
select rating
Please do not post tabs as comments. Select "correction" instead!