Oops, an error
Loading. Please wait.

Homicidal Retribution Tab

version 1
version 1

Intro

Whole song

Interactive

26,259 views 18 this week
6 commentsread comments
1 2 3 4 5
accurate
x 10
add to favorites
launch autoscroll
font size
0
reset
how to read this tab
guitar tuner
Tab Pro tools
  • play this tab
  • loop segment
  • change instrument
  • show fretboard
  • metronome
Autoscroll
slow
fast
+/-
esc
set tempo
stop
Contributor
Difficulty
advanced
Dying Fetus
Homicidal Retribution
War of Atrition
h-hammer on
p-pull of
x mute strings
intro
c#-----------------------------------------------------------------------|
g#-----------------------------------------------------------------------|
e------------------------------------------------------------------------|
b------------------------------------------------------------------------|
f#-----7--10--7--8------------------7--10--7--8--------------------------|
c#-------------------10--12--8--10---------------10--12--8--10-----------|
verse two
c#-----------------------------------------------------------------------|
g#-----------------------------------------------------------------------|
e------------------------------------------------------------------------|
b-------------------------------------------7h10p7-----------------------|
f#----7h10p7--6h9p6----7h10p7--6h9p6-------------------------------------|
c#-0-----------------0--------------------------------7h10p7-------------|

c#-----------------------------------------------------------------------|
g#-----------------------------------------------------------------------|
e------------------------------------------------------------------------|
b------------------------------------------------------------------------|
f#----7h10p7--6h9p6------------------------------------------------------|
c#-0----------------0-7-7-7--10-10-10-----3h6p3---2h5p2------------------|

play verse two 8 times!
verse three
c#-----------------------------------------------------------------------|
g#-----------------------------------------------------------------------|
e------------------------------------------------------------------------|
b-------------------2-2-1-1--3-3-2-2------------------2-2-2-2--3-3-2-2---|
f#---------2-2-1-1---------------------------2-2-1-1---------------------|
c#3-3-2-2----------------------------3-3-2-2-----------------------------|

c#-----------------------------------------------------------------------|
g#-----------------------------------------------------------------------|
e-------------------------------------------------------3---2---5---4----|
b-------------------2-2-1-1--3-3-2-2------------4---3---1---0---3---2----|
f#---------2-2-1-1----------------------5---4---2---1--------------------|
c#3-3-2-2-------------------------------3---2----------------------------|
riff b
c#-----------------------------------------------------------------------|
g#-----------------------------------------------------------------------|
e------------------------------------------------------------------------|
b-------------------1-2-1-2--2-3-2-3-------------------------------------|
f#--------1-2-1-2--------------------------------------------------------|
c#2-3-2-3----------------------------------------------------------------|
play riff b four times
chorus
c#--15------------------15-----------------------------------------------|
g#----14--------------14--14---------------------------------------------|
e--------13---------13------13-------------------------------------------|
b-----------x-----x------------------------------------------------------|
f#------------x--x---------------6--5-5-5-5--4--5-5-5--------------------|
c#-------------xx----------------4--3-3-3-3--2--3-3-3--------------------|
play chorus four times
chorus b
c#-----------------------------------------------------------------------|
g#-----------------------------------------------------------------------|
e------------------------------------------------------------------------|
b------------------------------------------------------------------------|
f#--5-5--4-5--------------4-5-------------4-5---------9--6---------------|
c#--3-3--2-3--3-3-3-3-3-3-2-3-3-3-3-3-3-3-2-3--3-3-3--7--4---------------|
play chorus b 4 times
verse four
c#------------------------------------------------------------------------|
g#------------------------------------------------------------------------|
e-------------------------------------------------------------------------|
b-----------------------------------------------------8-------------------|
f#--2-----2-----3------3-----6-----6---------8-9-10----9------------------|
c#--0-0-0-0-0-0-1-0-0--1-0-0-4-0-0-4--8-9-10------------10----------------|

c#-----------------------------------------------------------------------|
g#-----------------------------------------------------------------------|
e------------------------------------------------------------------------|
b------------------------------------------------------------------------|
f#--2-----2-----3-------3-----6-----6---7--10--7--8----------------------|
c#--0-0-0-0-0-0-1-0-0-0-1-0-0-4-0-0-4-----------------10--12--8--10------|
play verse four 4 times!
riff c
c#-----------------------------------------------------------------------|
g#-----------------------------------------------------------------------|
e---------------2--2-----------------------------------------------------|
b---------------0--4--4--5-----------------------------------------------|
f#--2--5--3--5--------2--3-----------------------------------------------|
c#--0--3--1--3-----------------------------------------------------------|
play riff c four times!
riff d
c#-----------------------------------------------------------------------|
g#-----------------------------------------------------------------------|
e------------------------------------------------------------------------|
b----------------------------------5------------4------------------------|
f#-3-----3-4-3-----3-4-3-----6-----3--6--5------2-5--4-------------------|
c#-1-0-0-1-2-1-0-0-1-2-1-0-0-4-0-0----4--3--0-0---3--2-------------------|
play riff d four times!
riff d-2
c#-----------------------------------------------------------------------|
g#-----------------------------------------------------------------------|
e------------------------------------------------------------------------|
b------------------------------------5-5-5---------------4-4-4-----------|
f#-3-----3-4-3-----3-4-3------6-6-6--3-3-3--6-6-6--5-5-5-2-2-2-----------|
c#-1-0-0-1-2-1-0-0-1-2-1--0-0-4-4-4---------4-4-4--3-3-3-----------------|
play verse d-2 one time!
verse e
c#-----------------------------------------------------------------------|
g#-----------------------------------------------------------------------|
e------------------------------------------------------------------------|
b--3--6------------------------------------------------------------------|
f#-1--4------------6-5---3-----3-5--9--6--------10--7--------9--6--------|
c#--------0-0-0-0--4-3-0-1-0-0-1-3--------8--5---------9--6--------8--5--|
play verse e 4 times
riff d-3
c#-----------------------------------------------------------------------|
g#-----------------------------------------------------------------------|
e------------------------------------------------------------------------|
b---------------------------------5--------4-----------------------------|
f#-3-----3-4-3-----3-4-3------6---3--6--5--2-5-4-------------------------|
c#-1-0-0-1-2-1-0-0-1-2-1--0-0-4------4--3----3-2-------------------------|
play riff d-3 1 time
verse f
c#-----------------------------------------------------------------------|
g#-----------------------------------------------------------------------|
e---------------------------------------6-6-6----------------------------|
b-------------------7-7-7---------------------8-8-8----------7-7-7-------|
f#--------8-8-8-----------8-8-8---------------------10-10-10------8-8-8--|
c#10-10-10-----10-10------------10-10-10---------------------------------|

c#------------------------------------------------------------------------|
g#------------------------------------------------------------------------|
e-------------------------------------6-6-6-------------------------------|
b-------------------7-7-7------------------8-8-8--------------------------|
f#--------8-8-8----------8-8-8------------------10-10-10------------------|
c#10-10-10-----10-10----------10-10-10------------------5-5-5-6-6-6-8-8-8-|
play vers f 8 times
riff e
c#---------------------------------------------15------------------------|
g#-------------------------------------------14--14----------------------|
e------------------------------------------13------13--------------------|
b-3--------------------3----------3-------x----------x-------------------|
f#2-----3-------3-6----2----3-----2------x------------x------------------|
c#--0-0-1-0-0-0-1-4-0-0-0-0-1-0-0----0--x--------------x-----------------|
play riff e four times
verse g
c#-----------------------------------------------------------------------|
g#-----------------------------------------------------------------------|
e------------------------------------------------------------------------|
b--4-------------------------------------4-------------------------------|
f#-2-3-4-3-3-3--3-6-3-3-3--3-4-3-3-3-4-3-2-------------------------------|
c#---1-2-1-1-1--1-4-1-1-1--1-2-1-1-1-2-1---------------------------------|
play verse g four times
endtro
c#---------------------------15------------------------------------------|
g#-------------------------14--14----------------------------------------|
e------------------------13------13--------------------------------------|
b-----------------------x----------x-------------------------------------|
f#0-3-4-3-0-3----------x------------x--0-3-4-3-0-3-1-4-2-5-3-6-4-7-------|
c#1-1-6-5-1-1-5-5-5-5-x--------------x-1-1-6-5-1-1-----------------------|
play endtro four times

by:Dylan McDonald
(you better enjoy this, this took me a long time to figure out!!)
comments
print report bad tab
6 comments total. Showing first comments.
+2 reply
kgrosse622 wrote on February 26 2008, 12:29 pm

i know it sucks cuz nobody loooks at death metal on thesee tabs and they never get rated so heres a 5 cuz it looked pretty in sync with the song

+4 reply
Gain_Junkie93 wrote on May 4 2008, 02:40 am

Hey nice tab it may not be dead on but it is a hell of a lot better than nothing. Keep it metal bro.

+5 reply
BrutalPanda wrote on June 24 2008, 12:31 am

This is one hell of a tab. Honestly, I was shocked to find a tab for this song. You nailed it pretty good, job well done.

I want to post or [tab]
guest
You may want to rate the tab now too:
select rating
Please do not post tabs as comments. Select "correction" instead!