Oops, an error
Loading. Please wait.

Institution Of Deceit Tab

version 1
version 1

Whole song

Interactive

329 views 1 this week
no commentswrite comment
1 2 3 4 5
3 more votes to show rating
add to favorites
launch autoscroll
font size
0
reset
how to read this tab
guitar tuner
Autoscroll
slow
fast
+/-
esc
set tempo
stop
Help us to improve Ultimate-Guitar.com Take our survey!
×
Author
Difficulty
advanced
TUNING: C# [C#,F#,B,e,g#,c#]

[Intro]
|---------------------------------------------------------------------------|
|---------------------------------------------------------------------------|
|-------------------8/9----------------------------------8/9----------------|
|-6/7---------------6/7------9/10------6/7---------------6/7------9/10------|
|-4/5------7/8---------------7/8-------4/5------7/8---------------7/8-------|
|-----0000-5/6-0000-----0000------0000-----0000-5/6-0000-----0000------0000-|
|                                                                           |
|---------------------------------------------------------------------------|
|---------------------------------------------------------------------------|
|--------------------------------------------------------8/9----------------|
|--------------------------------------6/7------7/8------6/7------9/10------|
|--------------------------------------4/5------5/6---------------7/8-------|
|------------------------------------------------------------0000------0000-|

[Part 1 (x4)]
||--------------------------------------||
||--------------------------------------||
||-------------------8/9----------------||
||-6/7---------------6/7------9/10------||
||-4/5------7/8---------------7/8-------||
||-----0000-5/6-0000-----0000------0000-||

[Part 2 (x4)]
||----------------------------------||
||----------------------------------||
||----------------------------------||
||-----------------6677-------------||
||-4455--------------------7788-----||
||-----000055660000----0000----0000-||

[PART 1 (x4)]

[Part 3 (x2)]
||---------------------------------------|----------------------------------|
||---------------------------------------|----------------------------------|
||---------------------------------------|----------------------------------|
||-------------------------------5-4-3-2-|----------------------------------|
||-3----3----3----3----3----3----3-2-1-0-|----------------------------------|
||-5-00-5-00-5-00-5-00-5-00-5-00---------|-44444400444444004444440044444400-|
     ..   ..   ..   ..   ..   .. . . . .

----------------------------------|---------------------------------------|
----------------------------------|---------------------------------------|
----------------------------------|---------------------------------------|
----------------------------------|---------------------------------------|
----------------------------------|-1----1----1----1----1----1----5-3-4-5-|
-44444400444444004444440044444400-|-0-00-0-00-0-00-0-00-0-00-0-00-3-1-2-3-|
                                      ..   ..   ..   ..   ..   .. . . . .

----------------------------------||
----------------------------------||
----------------------------------||
----------------------------------||
---------2222----2222----2222-----||
-11111111----1111----1111----1111-||

[PART 2 (x4)] [PART 1 (x4)] [PART 3]

[Outro 1]
||---------------------------------------|----------------------------------|
||---------------------------------------|----------------------------------|
||---------------------------------------|----------------------------------|
||-------------------------------5-4-3-2-|----------------------------------|
||-3----3----3----3----3----3----3-2-1-0-|----------------------------------|
||-5-00-5-00-5-00-5-00-5-00-5-00---------|-44444400444444004444440044444400-|
     ..   ..   ..   ..   ..   .. . . . .

----------------------------------|---------------------------------------|
----------------------------------|---------------------------------------|
----------------------------------|---------------------------------------|
----------------------------------|---------------------------------------|
----------------------------------|-1----1----1----1----1----1----5-3-4-5-|
-44444400444444004444440044444400-|-0-00-0-00-0-00-0-00-0-00-0-00-3-1-2-3-|
                                      ..   ..   ..   ..   ..   .. . . . .

[Outro 2]
||-----------------------------------------------------------||
||-----------------------------------------------------------||
||-----------------------------------------------------------||
||--------------------------------------------------6-5------||
||-3------3------3--5--6------3------3--3-3---------4-3-6-5--||
||-1--1-1-1--1-1-1--3--4--1-1-1--1-1-1--1-1-0-0-0-0-----4-3--||
|     . .    . .          . .    . .    . . . . . . . . . .   |
||-----------------------------------------------------------||
||-----------------------------------------------------------||
||-----------------------------------------------------------||
||--------------------------------------------------6-5------||
||--------------------------------------3-3---------4-3-6-5--||
||--------------------------------------1-1-0-0-0-0-----4-3--||
                                        . . . . . . . . . .

[Part 4 (x4)]
||-----------------------------------------------------------||
||-----------------------------------------------------------||
||-----------------------------------------------------------||
||--------------------------------------------------6-5------||
||-3------3------3--5--6------3------3--3-3---------4-3-6-5--||
||-1--1-1-1--1-1-1--3--4--1-1-1--1-1-1--1-1-0-0-0-0-----4-3--||
      . .    . .          . .    . .    . . . . . . . . . .

[Part 5 (x4)]
||-------------------------------------|-------------------------------------||
||-------------------------------------|-------------------------------------||
||-------------------------------------|-------------------------------------||
||-------------------------------------|-------------------------------------||
||------5-7------5-7------5-7------5-7-|------6-5------6-5------7-6------7-6-||
||-77-5-3-5-77-5-3-5-77-5-3-5-77-5-3-5-|-88-6-4-3-88-6-4-3-99-7-5-4-99-7-5-4-||
   .. . . . .. . . . .. . . . .. . . .   .. . . . .. . . . .. . . . .. . . .

[Part 6a]
||----------------------------------|----------------------------------||
||----------------------------------|----------------------------------||
||----------------------------------|----------------------------------||
||----------6---------------4-------|----------------------------------||
||----------------------------------|----------------------------------||
||-00000000-4--000000000000-2--0000-|-00000000222244445555444455554444-||

[Part 6b (x2)]
||----------------------------------------------------------------||
||----------------------------------------------------------------||
||----------------------------------------------------------------||
||---------6--------------4---------------------------------------||
||----------------------------------------------------------------||
||-000-000-4--000-000-000-2--000-000-000-222244445555444455554444-||
   ... ...    ... ... ...    ... ... ...

[PART 6a]

[Part 7 (x2)]
||------------------------------------------------|
||----------(6tr9)--------------------------------|
||-----------------(6tr9)----------(6tr9)-(7tr10)-|
||------------------------------------------------|
||------------------------------------------------|
||-22221111---------------00001111----------------|
|
||----------(4tr7)-(3tr6)-----------------(4tr7)--|
||---------------------------------(5tr8)---------|
||------------------------------------------------|
||------------------------------------------------|
||------------------------------------------------|
||-22221111---------------00001111----------------|

-------------------------------||
----------(6tr9)---------------||
-----------------(6tr9)--------||
------------------------(6tr9)-||
-------------------------------||
-22221111----------------------||
                                |
----------(4tr7)---------------||
-----------------(5tr8)--------||
------------------------(4tr7)-||
-------------------------------||
-------------------------------||
-22221111----------------------||

[PART 6b (x4)] [PART 7 (x4)]

[Part 8 (x2)]
||----------------------------|----------------------------|
||----------------------------|----------------------------|
||-5--------------------------|-5--------------------------|
||-3-----------5---4----------|-3-----------5---4----------|
||-3--4--2-5-3-5---4--2-3-5-4-|-3--4--2-5-3-5---4--2-3-5-4-|
||----2--0-3-1-3---2--0-1-3-2-|----2--0-3-1-3---2--0-1-3-2-|
         . . .        . . . .         . . .        . . . .

----------------------------|------------------------------||
----------------------------|------------------------------||
-5--------------------------|-5----------------------------||
-3-----------5---4----------|-3----------------------------||
-3--4--2-5-3-5---4--2-3-5-4-|-3--4--2-5-3-5--3-4-5--3-5-4--||
----2--0-3-1-3---2--0-1-3-2-|----2--0-3-1-3--1-2-3--1-3-2--||
       . . .        . . . .         . . . .  . . .  . . .
Suggest correction
Give kudos to tab author, rate the tab!
1 2 3 4 5
comments
print report bad tab
guest
You may want to rate the tab now too:
select rating
Wanna post a correction for this tab? Suggest correction