Oops, an error
Loading. Please wait.

Judgement Day Bass Tab

version 1
version 1

Whole song

Interactive

1,088 views 1 this week
no commentswrite comment
1 2 3 4 5
please rate
add to favorites
launch autoscroll
font size
0
reset
guitar tuner
Autoscroll
slow
fast
+/-
esc
set tempo
stop
Help us to improve Ultimate-Guitar.com Take our survey!
×
Author
Judgement Day                                   
Dying Fetus
Jason Netherton



Tuning: C# F# B E


      W                   W                   E  Q.     E  Q.      
E ||-------------------|-------------------|----------------------|
B ||-------------------|-------------------|----------------------|
F#||-------------------|-------------------|----------------------|
C#||-------------------|-------------------|--2---------2---------|


  E  Q.     E  Q.        E  E  E  E  E  E  E  E     E  E  E  E  E  E  E  E   
----------------------|--------------------------|--------------------------|
----------------------|--------------------------|--------------------------|
----------------------|--------------------------|--------------------------|
--2---------2---------|--2--2--0--0--3--0--0--2--|--0--0--3--0--3--2--6--5--|


  E  E  E  E  E  E  E  E     E  E  E  E  E  E  E  E   
--------------------------|--------------------------|
--------------------------|--------------------------|
--------------------------|--------------------------|
--2--2--0--0--3--0--0--2--|--0--0--3--0--3--2--6--5--|


  E  E  E  E  E  E  E  E     E  E  E  E  E  E  E  E   
--------------------------|--------------------------|
--------------------------|--------------------------|
--------------------------|--------------------------|
--2--2--0--0--3--0--0--2--|--0--0--3--0--3--2--6--5--|


  E  E  E  E  E  E  E  E     E  E  E  E  E  E  E  E   
--------------------------|--------------------------|
--------------------------|--------------------------|
--------------------------|--------------------------|
--2--2--0--0--3--0--0--2--|--0--0--3--0--3--2--6--5--|


  E  E  E  E  E  E  E  E     E  E  E  E  E  E  E  E   
--------------------------|--------------------------|
--------------------------|--------------------------|
--------------------------|--------------------------|
--2--2--0--0--3--0--0--2--|--0--0--3--0--3--2--6--5--|


  S S S S S S S S S S S S S S S S    S S S S S S S S S S S S S S S S  
----------------------------------|----------------------------------|
----------------------------------|----------------------------------|
----------------------------------|----------------------------------|
--2-2-2-2-2-2-2-2-0-0-0-0-2-2-2-2-|--2-2-2-2-3-3-3-3-0-0-0-0-3-3-3-3-|


  S S S S S S S S S S S S S S S S    S S S S S S S S S S S S S S S S  
----------------------------------|----------------------------------|
----------------------------------|----------4-4-4-4-----------------|
----------------------------------|------------------4-4-4-4---------|
--2-2-2-2-2-2-2-2-0-0-0-0-2-2-2-2-|--2-2-2-2-----------------5-5-5-5-|


  S S S S S S S S S S S S S S S S    S S S S S S S S S S S S S S S S  
----------------------------------|----------------------------------|
----------------------------------|----------------------------------|
----------------------------------|----------------------------------|
--2-2-2-2-2-2-2-2-0-0-0-0-2-2-2-2-|--2-2-2-2-3-3-3-3-0-0-0-0-3-3-3-3-|


  S S S S S S S S S S S S S S S S    S S S S S S S S S S S S S S S S  
----------------------------------|----------------------------------|
----------------------------------|----------4-4-4-4-----------------|
----------------------------------|------------------4-4-4-4---------|
--2-2-2-2-2-2-2-2-0-0-0-0-2-2-2-2-|--2-2-2-2-----------------5-5-5-5-|


  W                   W                   W                   W                 
-------------------|-------------------|-------------------|-------------------|
-------------------|-------------------|-------------------|-------------------|
-------------------|-------------------|-------------------|-------------------|
--2----------------|--L----------------|--L----------------|--L----------------|


  H        E.  E.  E     E.  E.  E  E.  E.  E     E.  E.  E  E.  E.  E   
----------------------|------------------------|------------------------|
----------------------|------------------------|------------------------|
-----------4---2---0--|-------------4---5---5--|-------------4---2---0--|
--L-------------------|--2---2---2-------------|--2---2---2-------------|


  E.  E.  E  E.  E.  E     E.  E.  E  E.  E.  E     E.  E.  E  E.  E.  E   
------------------------|------------------------|------------------------|
------------------------|------------------------|------------------------|
-------------4---5---5--|-------------4---2---0--|-------------4---5---5--|
--2---2---2-------------|--2---2---2-------------|--2---2---2-------------|


  E.  E.  E  E.  E.  E     E.  E.  E  E.  E.  E     E.  E.  E  E.  E.  E   
------------------------|------------------------|------------------------|
------------------------|------------------------|------------------------|
-------------4---2---0--|-------------4---5---5--|-------------4---2---0--|
--2---2---2-------------|--2---2---2-------------|--2---2---2-------------|


  S S S S S S S S S S S S S S S S    S S S S S S S S S S S S S S S S  
----------------------------------|----------------------------------|
--------------------------4-4-4-4-|----------------------------------|
------------------4-4-4-4---------|------------------4-4-4-4-0-0-0-0-|
--2-2-2-2-2-2-2-2-----------------|--2-2-2-2-2-2-2-2-----------------|


  S S S S S S S S S S S S S S S S    S S S S S S S S E.  E.  E   
----------------------------------|-----------------------------|
--------------------------4-4-4-4-|-----------------------------|
------------------4-4-4-4---------|------------------4---2---0--|
--2-2-2-2-2-2-2-2-----------------|--2-2-2-2-2-2-2-2------------|


  S S S S S S S S S S S S S S S S    S S S S S S S S S S S S S S S S  
----------------------------------|----------------------------------|
--------------------------4-4-4-4-|----------------------------------|
------------------4-4-4-4---------|------------------4-4-4-4-0-0-0-0-|
--2-2-2-2-2-2-2-2-----------------|--2-2-2-2-2-2-2-2-----------------|


  S S S S S S S S S S S S S S S S    S S S S S S S S E.  E.  E   
----------------------------------|-----------------------------|
--------------------------4-4-4-4-|-----------------------------|
------------------4-4-4-4---------|------------------4---2---0--|
--2-2-2-2-2-2-2-2-----------------|--2-2-2-2-2-2-2-2------------|


  E.  E.  E  E.  E.  E     E.  E.  E  E.  E.  E     E.  E.  E  E.  E.  E   
------------------------|------------------------|------------------------|
------------------------|------------------------|------------------------|
-------------4---5---5--|-------------4---2---0--|-------------4---5---5--|
--2---2---2-------------|--2---2---2-------------|--2---2---2-------------|


  E.  E.  E  E.  E.  E     E.  E.  E  E.  E.  E     E.  E.  E  E.  E.  E   
------------------------|------------------------|------------------------|
------------------------|------------------------|------------------------|
-------------4---2---0--|-------------4---5---5--|-------------4---2---0--|
--2---2---2-------------|--2---2---2-------------|--2---2---2-------------|


  E.  E.  E  E.  E.  E     E.  E.  E  E.  E.  E   
------------------------|------------------------|
------------------------|------------------------|
-------------4---5---5--|-------------4---2---0--|
--2---2---2-------------|--2---2---2-------------|


  S S S S S S S S S S S S S S S S    S S S S S S S S S S S S S S S S  
----------------------------------|----------------------------------|
--------------------------4-4-4-4-|----------------------------------|
------------------4-4-4-4---------|------------------4-4-4-4-0-0-0-0-|
--2-2-2-2-2-2-2-2-----------------|--2-2-2-2-2-2-2-2-----------------|


  S S S S S S S S S S S S S S S S    S S S S S S S S E.  E.  E   
----------------------------------|-----------------------------|
--------------------------4-4-4-4-|-----------------------------|
------------------4-4-4-4---------|------------------4---2---0--|
--2-2-2-2-2-2-2-2-----------------|--2-2-2-2-2-2-2-2------------|


  S S S S S S S S S S S S S S S S    S S S S S S S S S S S S S S S S  
----------------------------------|----------------------------------|
--------------------------4-4-4-4-|----------------------------------|
------------------4-4-4-4---------|------------------4-4-4-4-0-0-0-0-|
--2-2-2-2-2-2-2-2-----------------|--2-2-2-2-2-2-2-2-----------------|


  S S S S S S S S S S S S S S S S    S S S S S S S S E.  E.  E   
----------------------------------|-----------------------------|
--------------------------4-4-4-4-|-----------------------------|
------------------4-4-4-4---------|------------------4---2---0--|
--2-2-2-2-2-2-2-2-----------------|--2-2-2-2-2-2-2-2------------|


  E  E  Q    H           W                   E  E  E  E  E  E  E  E   
----------------------|-------------------|--------------------------|
----------------------|-------------------|--------------------------|
----------------------|-------------------|--------------------------|
--2-------------------|-------------------|--2--2--0--0--3--0--0--2--|


  E  E  E  E  E  E  E  E     E  E  E  E  E  E  E  E   
--------------------------|--------------------------|
--------------------------|--------------------------|
--------------------------|--------------------------|
--0--0--3--0--3--2--6--5--|--2--2--0--0--3--0--0--2--|


  E  E  E  E  E  E  E  E     E  E  E  E  E  E  E  E   
--------------------------|--------------------------|
--------------------------|--------------------------|
--------------------------|--------------------------|
--0--0--3--0--3--2--6--5--|--2--2--0--0--3--0--0--2--|


  E  E  E  E  E  E  E  E     E  E  E  E  E  E  E  E   
--------------------------|--------------------------|
--------------------------|--------------------------|
--------------------------|--------------------------|
--0--0--3--0--3--2--6--5--|--2--2--0--0--3--0--0--2--|


  E  E  E  E  E  E  E  E     E  E  E  E  E  E  E  E   
--------------------------|--------------------------|
--------------------------|--------------------------|
--------------------------|--------------------------|
--0--0--3--0--3--2--6--5--|--2--2--0--0--3--0--0--2--|


  E  E  E  E  E  E  E  E     E  Q    E  Q    E  E     E  E  Q    E  E  E  E   
--------------------------|------------------------|-------------------------|
--------------------------|------------------------|-------------------------|
--------------------------|------------------------|-------------------------|
--0--0--3--0--3--2--6--5--|--0--2----0--3----0--2--|--L--0--3----3--2--6--5--|


  E  Q    E  Q    E  E     E  E  Q    E  E  E  E     E  Q    E  Q    E  E   
------------------------|-------------------------|------------------------|
------------------------|-------------------------|------------------------|
------------------------|-------------------------|------------------------|
--0--2----0--3----0--2--|--L--0--3----3--2--6--5--|--0--2----0--3----0--2--|


  E  E  Q    E  E  E  E     E  Q    E  Q    E  E     E  E  Q    E  E  E  E   
-------------------------|------------------------|-------------------------|
-------------------------|------------------------|-------------------------|
-------------------------|------------------------|-------------------------|
--L--0--3----3--2--6--5--|--0--2----0--3----0--2--|--L--0--3----3--2--6--5--|


  E  E  Q    H          
----------------------||
----------------------||
----------------------||
--0--2----------------||




Duration Legend
---------------
W - whole
H - half
Q - quarter
E - 8th
S - 16th
T - 32nd
X - 64th
. - note dotted
|-n-|  - n-tuplets


Tablature Legend
----------------
L - tied note
x - dead note
g - grace note
(n) - ghost note
> - accentuded note
NH - natural harmonic
AH - artificial harmonic
TH - tapped harmonic
SH - semi harmonic
PH - pitch harmonic
h - hammer on
p - pull off
b - bend
br - bendRelease
pb - preBend
pbr - preBendRelease
brb - bendReleaseBend
\n/ - tremolo bar dip
\n - tremolo bar dive
-/n - tremolo bar Release up
/n\ - tremolo bar inverted dip
/n - tremolo bar return
-\n - tremolo bar Release down
S - shift slide
s - legato slide
/ -  slide into from below or out of upwards
\ -  slide into from above or out of downwards
~ - vibrato
W - wide vibrato
tr - trill
TP - tremolo picking
T - tapping
S - slap
P - pop
< - fade in
^ - brush up
v - brush down
Suggest correction
What's this?
You can suggest a correction to this tab. Community and Mods will review your correction and vote to approve or reject it.
comments
We did not receive enough feedback on this tab! Please rate:
print report bad tab
1 2 3 4 5
guest
You may want to rate the tab now too:
select rating
Please do not post tabs as comments. Select "correction" instead!