Oops, an error
Loading. Please wait.

Justifiable Homicide Tab

version 1
version 1

Whole song

Interactive

1,159 views 1 this week
no commentswrite comment
1 2 3 4 5
please rate
add to favorites
launch autoscroll
font size
0
reset
how to read this tab
guitar tuner
Tab Pro tools
  • play this tab
  • loop segment
  • change instrument
  • show fretboard
  • metronome
×
Best way to learn
"Justifiable Homicide"
Autoscroll
slow
fast
+/-
esc
set tempo
stop
                    DYING FETUS - JUSTIFIABLE HOMICIDE
                      From "Destroy the Opposition"             
  

Transcribed by: Justin Simms

For Questions, Comments, Corrections, Requests
please contact at reaper@slayerized.com

Check out The Reaper's Metal Tablature Archive at
      http://internettrash.com/users/thereaper/

.  - palm mute                          /  - slide up to
\  - slide down to                      ~  - vibrato
"  - tremelo picking                    () - ghost note
p  - pull off                           h  - hammer-on 
tr - trill notes                        fb - full bend (1step)
< > - natural harmonic

Dying Fetus - Justifiable Homicide

Tuned to C#

Riff A
|---------------------------------------------------|
|---------------------------------------------------|
|---------------------------------------------------|Both Gtrs
|-------------------------5-------------------------|
|-5-------4-----------3-----------------------------|
|-3-000-0-2-000-0-222---2---2-3~--------------------|
    ... .   ... . ...   .   .

|------------------------------------------20-------|
|---------------------------------------19----19----|
|---------------------------------19h20----------19-|Both Gtrs
|------------------------------17-------------------|
|-5-------4-----------------17----------------------|
|-3-000-0-2-000-0-15/17--17-------------------------|
    ... .   ... .

Riff A - 2x

Riff B1
|----------------------------------------|
|----------------------------------------|
|----------------------------------------|Both Gtrs
|----------------------------------------|
|-5\4-----7/8-----5\4-----4\3------------|
|-3\2-0-0-5/6-0-0-3\2-0-0-2\1-0-0--------|
      . .     . .     . .     . .

|----------------------------------------|
|----------------------------------------|
|----------------------------------------|Both Gtrs
|----------------------------------------|
|-5\4-----7/8---------000-000-000--------|
|-3\2-0-0-5/6-0-0-222--------------------|
      . .     . . ... ... ... ...

Riff B1 - 3x

Riff B2
|----------------------------------------|
|----------------------------------------|
|----------------------------------------|Both Gtrs
|----------------------------------------|
|-5\4-----7/8-----5\4-----4\3------------|
|-3\2-0-0-5/6-0-0-3\2-0-0-2\1-0-0--------|
      . .     . .     . .     . .

|----------------------------------------|
|----------------------------------------|
|----------------------------------------|Both Gtrs
|----------------------7----6------------|
|-5\4-----7/8-----5----5----4------------|
|-3\2-0-0-5/6-0-0-3-------------5ah------|
      . .     . .

Riff B2 - 1x
Riff A - 2x
Riff B1 - 3x
Riff B2 - 1x

Riff C
|----------------------------------------|
|----------------------------------------|
|----------------------------------------|Both Gtrs
|----------------------------------------|
|-2---------------7---7---6---3-4-3------|
|-0---1-0-3ah---0-5-0-5-0-4-0-1-2-1------|
      . .       .   .   .   . . . .

|----------------------------------------|
|----------------------------------------|
|----------------------------------------|Both Gtrs
|----------------------------------------|
|-2---------------7---7---6---3-4-3------|
|-0---1-0-3ah---0-5-0-5-0-4-0-1-2-1------|
      . .       .   .   .   . . . .

|----------------------------------------|
|----------------------------------------|
|----------------------------------------|Both Gtrs
|----------------------------------------|
|-2---------------7---7---6---3-4-3------|
|-0---1-0-3ah---0-5-0-5-0-4-0-1-2-1------|
      . .       .   .   .   . . . .

|----------------------------------------|
|----------------------------------------|
|----------------------------------------|Both Gtrs
|----------------------------------------|
|-655-----766-----655-----766------------|
|-----8-7-----8-7-----8-7-----8-7--------|
  ... . . ... . . ... . . ... . .

Riff C - 4x

Riff D1
|----------------------------------------|
|----------------------------------------|
|----------------------------------------|Both Gtrs
|---------5"------------4h5--------------|
|-3"------------------------4~-----------|
|-----2"------2"--3p2/-------------------|

|----------------------------------------|
|----------------------------------------|
|----------------------------------------|Both Gtrs
|----------------------------------------|
|------2"----3"-2"-0"-2"-----------------|
|-0"------0"-----------------------------|

Riff D1 - 5x

Riff D2
|----------------------------------------|
|----------------------------------------|
|----------------------------------------|Gtr I
|---------5"------------4h5--------------|
|-3"--------------------------4~---------|
|-----2"------2"--3p2/-------------------|
|                                        |
|----------------------------------------|
|----------------------------------------|
|---------12"-----------11h12------------|Gtr II
|-10"-------------------------11~--------|
|-----9"------9"-10p9--------------------|
|----------------------------------------|


|----------------------------------------|
|----------------------------------------|
|----------------------------------------|Gtr I
|----------------------------------------|
|------2"----3"-2"-0"2"------------------|
|-0"------0"-----------------------------|
|                                        |
|----------------------------------------|
|----------------------------------------|
|----------------------------------------|Gtr II
|------9"----10"9"-7"9"------------------|
|----------------------------------------|
|-0"------0"-----------------------------|


|----------------------------------------|
|----------------------------------------|
|----------------------------------------|Gtr I
|---------5"------------4h5--------------|
|-3"--------------------------4~---------|
|-----2"------2"--3p2/-------------------|
|                                        |
|----------------------------------------|
|----------------------------------------|
|---------12"-----------11h12------------|Gtr II
|-10"-------------------------11~--------|
|-----9"------9"-10p9--------------------|
|----------------------------------------|


|----------------------------------------|
|----------------------------------------|
|----------------------------------------|Gtr I
|----------------------------------------|
|------2"----3--2--0-2ah-----------------|
|-0"------0"-----------------------------|
|                                        |
|----------------------------------------|
|----------------------------------------|
|----------------------------------------|Gtr II
|------9"----10-9--7---------------------|
|--------------------9ah-----------------|
|-0"------0"-----------------------------|

Riff D2 - 1x

Riff E1
|----------------------------------------|
|----------------------------------------|
|----------------------------------------|Both Gtrs
|----------------------------------------|
|-4444444-5-4-----4444-----5-4-5---------|
|-2222222-3-2-----2222-----3-2-3---------|
  .......         ....     . .

|----------------------------------------|
|----------------------------------------|
|----------------------------------------|Both Gtrs
|----------------------------------------|
|-4444444-5-4-----8-7-6-7-6-5-6-4--------|
|-2222222-3-2-----6-5-4-5-4-3-4-2--------|
  .......         . . . . . . . .

|----------------------------------------|
|----------------------------------------|
|----------------------------------------|Both Gtrs
|----------------------------------------|
|-4444444-5-4-----4444-----5-4-5---------|
|-2222222-3-2-----2222-----3-2-3---------|
  .......         ....     . .

|----------------------------------------|
|----------------------------------------|
|----------------------------------------|Both Gtrs
|----------------------------------------|
|-4444444-5-4-----2---4---5---4----------|
|-2222222-3-2-----0---2---3---2----------|
  .......         

Riff E1 - 1x

Riff E2
|----------------------------------------|
|----------------------------------------|
|----------------------------------------|Both Gtrs
|----------------------------------------|
|-444-4-4-544-4-4-444-4-4-5-4-5/7--------|
|-222-2-2-322-2-2-222-2-2-3-2-3/5--------|
  ... . . ... . . ... . .  

|----------------------------------------|
|----------------------------------------|
|----------------------------------------|Both Gtrs
|----------------------------------------|
|-444-4-4-544-4-4-8-7-6-7-6-5-6-4--------|
|-222-2-2-322-2-2-6-5-4-5-4-3-4-2--------|
  ... . . ... . . . . . . . . . .

|----------------------------------------|
|----------------------------------------|
|----------------------------------------|Both Gtrs
|----------------------------------------|
|-444-4-4-544-4-4-444-4-4-5-4-5/7--------|
|-222-2-2-322-2-2-222-2-2-3-2-3/5--------|
  ... . . ... . . ... . . 

|----------------------------------------|
|----------------------------------------|
|----------------------------------------|Both Gtrs
|----------------------------------------|
|-444-4-4-544-4-4-2---4---5---4----------|
|-222-2-2-322-2-2-0---2---3---2----------|
  ... . . ... . .

Riff E2 - 1x
Riff E1 - 1x
Riff E2 - 1x

Fill
|-----|----------------------------------|
|-----|----------------------------------|
|-----|----------------------------------|Both Gtrs
|-----|-------------------5--------------|
|-2---|-------------------3---3----------|
|-0---|-----------------------1----------|
                          .   .
  ^let this ring 
   over bass and drums,   ^then this



Riff F1
|------------------------------------------|
|------------------------------------------|
|------------------------------------------|Both Gtrs
|-------7-7---------------5----------------|
|-2---5-5-5-5-3-2---3-2-3-3-3-2-3----------|
|-0---3-----3-1-0---1-0-1---1-0-1----------|
      . . . . .     . . . . . . . 

|------------------------------------------|
|------------------------------------------|
|------------------------------------------|Both Gtrs
|---------7---------------5----------------|
|-2---5-2-5-5-3-2---3-2-3-3---3------------|
|-0---3-0---3-1-0---1-0-1-----1------------|
      . . . . .     . . . .   .

Riff F1 - 1x

Riff F2
|------------------------------------------|
|------------------------------------------|
|------------------------------------------|Both Gtrs
|---------7---------------5----------------|
|-2---5-2-5-5-3-2---3-2-3-3-3-2-3----------|
|-0---3-0---3-1-0---1-0-1---1-0-1----------|
      . . . . .     . . . . . . . 

|------------------------------------------|
|------------------------------------------|
|------------------------------------------|Both Gtrs
|---------7--------------------------------|
|-2---5-2-5-5-3-2---3-2-3-4-4-4-4----------|
|-0---3-0---3-1-0---1-0-1-2-2-2-2----------|
      . . . . .     . . . . . . .

Riff F2 - 1x
Riff F1 - 2x (no palm mute)
Riff A  - 2x
Riff B1 - 3x
Riff B2 - 1x

Fill
|----|
|----|
|----|Both Gtrs
|----|
|-2--|
|-0--|

Riff G1
|----------------------------------------|
|----------------------------------------|
|----------------------------------------|Both Gtrs
|----------------------------------------|
|---------3-------8\7---4-----4/5--------|
|-000-0-0-1---0-0-6\5-0-2---0-2/3--------|
  ... . .     . .     .     .

Riff G1 - 1x

Riff G2
|----------------------------------------|
|----------------------------------------|
|----------------------------------------|Both Gtrs
|----------------------------------------|
|-2---4-2-4-5---8---2-4-2-4-5-4-2--------|
|-0---2-0-2-3-0-6---0-2-0-2-3-2-0--------|
      . . . . .     . . . . . . .

Riff G2 - 1x

Riff G3
|----------------------------------------|
|----------------------------------------|
|----------------------------------------|Both Gtrs
|----------------------------------------|
|-2---4-2-4-5---8---2-4-2-4-5------------|
|-0---2-0-2-3-0-6---0-2-0-2-3-3ah~-------|
      . . . . . .   . . . . .


Riff G3 - 1x
Riff G2 - 1x
Riff G1 - 1x
Riff G2 - 3x
Riff G1 - 1x

Riff H1
|----------------------------------------|
|----------------------------------------|
|----------------------------------------|Both Gtrs
|----------------------------------------|
|-2---2---4/5---8---2-4-2-4-5-4-2--------|
|-0---0---2/3-0-6---0-2-0-2-3-2-0--------|
  .   .       .     . . . . . . .

Riff H1 - 1x

Riff H2
|----------------------------------------|
|----------------------------------------|
|----------------------------------------|Both Gtrs
|----------------------------------------|
|-2---2---4/5---8---2-4-2-4-5------------|
|-0---0---2/3-0-6---0-2-0-2-3-3ah~-------|
  .   .       .     . . . . .  

Riff H2 - 1x
Riff H1 - 1x
Riff G1 - 1x
Riff H1 - 1x

Riff H3
|----------------------------------------|
|----------------------------------------|
|-----------------------------5ah~-------|Both Gtrs
|----------------------------------------|
|-2---2---4/5---8---2-4-2-4-5------------|
|-0---0---2/3-0-6---0-2-0-2-3-----------|
  .   .       .     . . . . .  

Riff H3 - 1x
Riff H1 - 1x
Riff G1 - 1x

End
|----------------------------------------|
|----------------------------------------|
|----------------------------------------|Both Gtrs
|----------------------------------------|
|-2--------------------------------------|
|-0--------------------------------------|
comments
We did not receive enough feedback on this tab! Please rate:
print report bad tab
1 2 3 4 5
I want to post or [tab]
guest
You may want to rate the tab now too:
select rating
Please do not post tabs as comments. Select "correction" instead!