Oops, an error
Loading. Please wait.

Killing On Adrenaline tab

version 2
version 2

Whole song

Interactive

350 views 3 this week
no commentswrite comment
1 2 3 4 5
3 more votes to show rating
add to favorites
×
Save as Personal and add changes to this tab that will be seen only by you. Learn more ›
×
You can save this tab as Personal to edit and correct it or add notes. All changes will be seen only by you. Learn more »
launch autoscroll
font size
0
reset
how to read this tab
guitar tuner
edit
Autoscroll
slow
fast
+/-
esc
set tempo
stop
Author
--- D Y I N G   F E T U S ---
                             "Killing On Adrenaline"
                     From album: "Killing On Adrenaline"
                     

                            TABULATURE LEGEND:
                   " - tremolo             h - hammer on           
                   ~ - vibrato             \ - slide down
                   p - pull off            / - slide down
                  tr - trill               ^ - pinch harmonics     
                   = - sustained note      b - bend string         
                p.m. - palm muting         t - tapping
                           <> - natural harmonic

TUNING: C# [C#,F#,B,e,g#,c#]

[Riff 1] (x2)
-|------------------------------|---------------------|
-|------------------------------|---------------^-----|
-|------------------------------|---------------5"...-|
-|-9-8-6-9-8-6-7-6-4------------|---------------------|
-|-------------------7-6-4------|-------4-2-4-2-------|
-|-------------------------[x3]-|-2"...-2-0-2-0-------|
tr........................              . . . .

[Riff 2] (x4)
-|---------------------|-[ending 1, 3]------|-[ending 2, 4]-----|
-|---------------^-----|--------------^-----|-------------------|
-|---------------5"...-|--------------5"...-|-------------------|
-|---------------------|--------------------|-------------------|
-|-------4-2-4-2-------|-4444-4-2-4-2-------|-------4-2-4-3-6/7-|
-|-2"...-2-0-2-0-------|-2222-2-0-2-0-------|-2"...-2-0-2-1-4/5-|
         . . . .         .... . . . .               . . . .

[Riff 3] (x4)
-|----------------------------|---------------------------|
-|----------------------------|---------------------------|
-|----------------------------|---------------------------|
-|-----------------8----8-----|-----------------8----8-9--|
-|-----------------6----6-----|-----------------6----6-7--|
-|-3h4-6h7-3h4-6h7---0"---7p6-|-3h4-6h7-3h4-6h7---0"------|

[Riff 4] (x4)
-|---------------------|-[ending 1,3]--------|-[ending 2,4]---|
-|---------------------|---------------------|----------------|
-|---------------------|---------------------|----------------|
-|-----6-6-------------|-----7-7-------------|-----7--7--7--8-|
-|-4-3-4-4-------------|-5-4-5-5-------------|-5-4-5--5--5--6-|
-|-2-1-----2p1-5p4-2p1-|-3-2-----3p2-6p5-3p2-|-3-2------------|
                                                      .  .
[Riff 5] (x4)
-|--------------------------|--------------------------|
-|--------------------------|--------------------------|
-|--------------------------|--------------------------|
-|-----2-4-2-------------^--|-----2-4-2-------------^--|
-|-4-3-0-2-0-4-3-4-4"....4~-|-4-3-0-2-0-4-3-4-5"....1~-|
-|-2-1-------2-1-2----------|-2-1-------2-1-2----------|
   . . . . . . . .            . . . . . . . .

[RIFF 3 (x4)] [RIFF 4 (x2)]

[Outro 1]
-|---------------------------|
-|---------------------------|
-|-5==--5==--5==--5----------|
-|-4==--4==--4==--4--9-8-----|
-|-3==--3==--3==--3--7-6-9-8-|
-|-----------------------7-6-|
                     . . . .
[Riff 6a] (x3)                 [Out 1]
-|----------------------------|-------------------------|
-|----------------------------|-------------------------|
-|----------------------------|-------------------------|
-|----------------------------|-----^-----^-----^-----^-|
-|-6-4-3--3--4-3--4-3--3-4-6--|-----2-----2-----2-----2-|
-|-4-2-1--1--2-1--2-1--1-2-4--|-111---111---111---111---|
   . .       .    .    . .          ...   ...   ...   ...

[Riff 6b]
-|---------------------------|------------------------------|
-|---------------------------|------------------------------|
-|---------------------------|------------------------------|
-|---------------------------|------------------------------|
-|-6-4-3--3--4-3--4-3--3-4-6-|-6-4-3--3--4-3----2---2-------|
-|-4-2-1--1--2-1--2-1--1-2-4-|-4-2-1--1--2-1--4---4---4-3-2-|
   . .       .    .    . .     . .       .    . . . . . . .

[Riff 6a] [Out 2]
-|-------|-----------------------^-|---------------------------|
-|-------|-----------------^-----3-|---------------------------|
-|-------|-----------------4-------|---------------------------|
-|-------|-----^-----^-------------|-----^-----^--9-8----------|
-|-------|-----2-----3-------------|-----2-----3--7-6-10-9-8-7-|
-|-------|-111---111---111---111---|-111---111---------8-7-6-5-|
           ...   ...   ...   ...     ...   ...    . .  . . . .

[RIFF 6a (x3)] [OUT 2] [RIFF 6a] [RIFF 6b] [OUT 1]

[Riff 7] (x4)
-|-----------------------------------------------------------|
-|-----------------------------------------------------------|
-|-------------------------------8----8----8---9----9----9---|
-|-----------------------------------------------------------|
-|-----5/10-----2---2------------6-00-6-00-6-0-7-00-7-00-7-0-|
-|-0/5------3-4---4---4-2-0-[x3]-----------------------------|
            . . . . . . . .        ..   ..   .   ..   ..   .

[Riff 8] (x4)
-|---------------|------------------|---------------|------------------|
-|---------------|------------------|---------------|------------------|
-|---------------|------------------|---------------|------------------|
-|-----2-4-2-----|-----4---------9--|-----2-4-2-----|-----4------------|
-|-2-4-0-2-0-4-3-|-2---2-4-2-4-2-7--|-2-4-0-2-0-4-3-|-2---2-4-2-4-2-5--|
-|-0-2-------2-1-|-0-0---2-0-2-0----|-0-2-------2-1-|-0-0---2-0-2-0-3--|
   . . . . . . .     .   . . . .      . . . . . . .     .   . . . .

[Bass solo]
-|-------------|---------------|-------------|
-|-------------|---------------|-------------|
-|-------------|-0h2-0---------|-------------|
-|-1-3-1-0"...-|-------3-0"...-|-1-4-3-0"...-|
 |             |               |             |
-|-------------|---------------|-------------|-------------|
-|-------------|---------------|-------------|-------------|
-|-------------|---------------|-------------|-------------|
-|-------------|---------------|-------------|-------------|
-|-------------|---------------|-------------|-3-6-3-4-6-3-|
-|-------------|---------------|-------------|-1-4-1-3-4-1-|
                                               x x x x x x

[Riff 9a] (x2)
-|-------------|--------------|-------------|-------------|
-|-------------|--------------|-------------|-------------|
-|-------------|--------------|-------------|-------------|
-|-------------|-4-2----------|-------------|-------------|
-|-7-5-3-------|-2-0-5--------|-3-6-5-------|-3-6-3-4-6-3-|
-|-5-3-1-0"...-|-----3-0"...--|-1-4-3-0"...-|-1-4-1-3-4-1-|
   . . .         . . .          . . .         x x x x x x

[Riff 9b] (x2)
-|----------------|----------------|----------------|-------------|
-|----------------|----------------|----------------|-------------|
-|----------------|----------------|----------------|-------------|
-|----------------|----------------|----------------|-------------|
-|----------------|-2"-0"----------|----------------|-3-6-3-4-6-3-|
-|-5"-3"-1"-0"...-|-------3"-0"...-|-1"-4"-3"-0"...-|-1-4-1-3-4-1-|
                                                      x x x x x x

[RIFF 5 (x4)] [RIFF 1 (x1)] [RIFF 2 (x4)] [RIFF 1 (x1)]

END OF SONG

            
            
Suggest correction
Creating personal tab
Creating personal tab
You can edit any tab online and save it as your Personal.

You can edit, replace or remove any tab part or add personal notes – all changes will be seen only by you.

Personal tabs can be accessed anytime from any device, even offline.
Learn more »
Give kudos to tab author, rate the tab!
1 2 3 4 5
comments
print report bad tab
guest
You may want to rate the tab now too:
select rating
Wanna post a correction for this tab? Suggest correction