Oops, an error
Loading. Please wait.

Nocturnal Crucifixion Tab

version 1
version 1

Whole song

Interactive

687 views 1 this week
no commentswrite comment
1 2 3 4 5
please rate
add to favorites
launch autoscroll
font size
0
reset
how to read this tab
guitar tuner
Autoscroll
slow
fast
+/-
esc
set tempo
stop
Help us to improve Ultimate-Guitar.com Take our survey!
×
Author
h - hammer on              p - pull off
v - vibrato                b - bend string
^ - pinch harmonics        p.m. - palm mute
x - muted note             t - right hand tap
/ - slide up               \ - slide down
{}-special notes

Tune to C#

Riff 1 (x4)
|----------------------------------|
|----------------------------------|
|----------------------------------|
|----------------------------------|
|-777744445555----5555-------------|
|-------------0000----111100001111-|

Riff 2 (x6)
|---------------------------|
|---------------------------|
|---------------------------|
|-6-6-6--7-7-7--------------|
|-4-4-4--5-5-5--3-3-3-3-2-3-|
|---------------1-1-1-1-0-1-|
  . . .  . . .  . . . . . .

Riff 3a
|-----------------------------------|
|-----------------------------------|
|-----------------------------------|
|-----------------------------------|
|-2-2-2-2---2-2-2-2---2-2-2-2-------|
|-0-0-0-0---0-0-0-0---0-0-0-0-------|
  . . . .   . . . .   . . . .

Riff 3b
|------------------------------------------|
|------------------------------------------|
|------------------------------------------|
|------------------------------------------|
|-2-2-2-2---2-2-2-2---2-2-2-2--9-8-7-8-7-6-|
|-0-0-0-0---0-0-0-0---0-0-0-0--7-6-5-6-5-4-|
  . . . .   . . . .   . . . .  . . . . . .

Riff 3c (x2)
|---------------------------------------------|
|---------------------------------------------|
|---------------------------------------------|
|---------------------------------------------|
|-2-2-2-2-2-2-2-2-2-2-2-2-2-2-2-2-9-8-7-8-7-6-|
|-0-0-0-0-0-0-0-0-0-0-0-0-0-0-0-0-7-6-5-6-5-4-|
  . . . . . . . . . . . . . . . . . . . . . .

Riff 3d
|---------------|----------|
|---------------|----------|
|---------------|----------|
|---------------|----------|
|-9-8-7-8-7-6-2-|-2-2-2-2--|
|-7-6-5-6-5-4-0-|-0-0-0-0--|
  . . . . . . .   . . . .

Riff 4 (one guitar begins)
|---------------------------------|
|---------------------------------|
|---------------------------------|
|---------------------------------|
|-----------------------2-1-------|
|-0-2-0-2-0-2-0-2-0-2-0-----2-0-2-|
  . . . . . . . . . . . . . . . .

Play Riff 4 [both gtrs.] (x9)

Riff 5a
|-------------------------|-------------------------|
|-------------------------|-------------------------|
|-------------------------|-------------------------|
|-------------------------|-------------------------|
|-------------------------|-------------0-0-0-------|
|-0-0-0-2-2-2-1-1-1-0-0-0-|-2-2-2-1-1-1-------1-1-1-|
  . . . . . . . . . . . .   . . . . . . . . . . . .

Riff 5b
|-------------------------|-------------------------|
|-------------------------|-------------------------|
|-------------------------|-------------------------|
|-------------------------|-------------------------|
|-------------------------|-------------0-0-0-0-0-0-|
|-0-0-0-2-2-2-1-1-1-0-0-0-|-2-2-2-1-1-1-------------|
  . . . . . . . . . . . .   . . . . . . . . . . . .

Play Riff 5a

Riff 5c
|-----------------------------------------|
|-----------------------------------------|
|-----------------------------------------|
|-----------------------------------------|
|-------------------------4\3/4-6-4\3/4-6-|
|-0-0-0-2-2-2-1-1-1-0-0-0-2\1/2-4-2\1/2-4-|
  . . . . . . . . . . . .

Riff 6 (x4)
|----------------------------------|
|----------------------------------|
|----------------------------------|
|----------------------------------|
|-----3333----3333----3333-4\3/4-6-|
|-0000----0000----0000-----2\1/2-4-|

Riff 7 (x4)
|---------------------------------------------|
|---------------------------------------------|
|---------------------------------------------|
|---------------------------------------------|
|-4-2-3-4-2-3-4-2-3-4\3/4-4-2-3-4-2-3-4\3/4-6-|
|-2-0-1-2-0-1-2-0-1-2\1/2-2-0-1-2-0-1-2\1/2-4-|
  . . . . . . . . .       . . . . . .

Riff 8
|---------------------------------------------|
|---------------------------------------------|
|---------------------------------------------|
|---------------------------------------------|
|-------33-22-------33-22-[t12p8p5]-[t11p7p4]-|
|-00-22-------00-22---------------------------|
| .. .. .. .. .. .. .. .. ```x4```` ```x4```` |
|---------------------------------------------|
|---------------------------------------------|
|---------------------------------------------|
|---------------------------------------------|
|-------------------------[t12p8p5]-[t11p7p4]-|
|---------------------------------------------|
                          ```x4```` ```x4````
Play Riff 8 [both gtrs.] (x3)

Riff 9a
|-----------|---------------------|
|-----------|---------------------|
|-----------|---------------------|
|-----------|---------------------|
|-2-------6-|-3-------6-5-4-5-4-3-|
|-0-------4-|-1-------4-3-2-3-2-1-|
                      . . . . . .

Riff 9b
|---------------------------------------|
|---------------------------------------|
|---------------------------------------|
|---------------------------------------|
|-2-2-2-2-2-2-2-2-2-2-2-2-2-2-2-2-6-6-6-|
|-0-0-0-0-0-0-0-0-0-0-0-0-0-0-0-0-4-4-4-|
  . . . . . . . . . . . . . . . . . . .

|---------------------------------------------|
|---------------------------------------------|
|---------------------------------------------|
|---------------------------------------------|
|-3-3-3-3-3-3-3-3-3-3-3-3-3-3-3-3-6-5-4-5-4-3-|
|-1-1-1-1-1-1-1-1-1-1-1-1-1-1-1-1-4-3-2-3-2-1-|
  . . . . . . . . . . . . . . . . . . . . . .

Riff 9c
|-------------|
|-------------|
|-------------|
|-------------|
|-6-5-4-5-4-3-|
|-4-3-2-3-2-1-|

Riff 10a (x3)
|------------------|------------------|
|------------------|------------------|
|------------------|------------------|
|------------------|---------11111111-|
|-----2222---------|-----2222---------|
|-0000----22221111-|-0000-------------|

Riff 10b
|------------------|--------|
|------------------|--------|
|------------------|--------|
|------------------|---4-8--|
|-----2222---------|-2-2-6--|
|-0000----22221111-|-0------|
Suggest correction
What's this?
You can suggest a correction to this tab. Community and Mods will review your correction and vote to approve or reject it.
comments
We did not receive enough feedback on this tab! Please rate:
print report bad tab
1 2 3 4 5
guest
You may want to rate the tab now too:
select rating
Please do not post tabs as comments. Select "correction" instead!