Oops, an error
Loading. Please wait.

Nocturnal Crucifixion Tab

version 2
version 2

Whole song

Interactive

142 views 1 this week
no commentswrite comment
1 2 3 4 5
please rate
add to favorites
launch autoscroll
font size
0
reset
how to read this tab
guitar tuner
Autoscroll
slow
fast
+/-
esc
set tempo
stop
Help us to improve Ultimate-Guitar.com Take our survey!
×
Author
Dying Fetus
Purification Through Violence 
Nocturnal Crucifixion

.  - palm mute
\  - slide down to
/  - slide up to
h  - hammer on
p  - pull off
t  - tap
ph - pinch harmonic
~  - vibrato
b  - bend
r  - release bend
tr - trill
*  - comment

Tuning: C# F# B E G# C#

Guitar I - John Gallagher (Left channel)
Guitar II - Brian Latta (Right channel)



Figure 1A x4
|----------------------------------|
|----------------------------------|
|----------------------------------|
|----------------------------------|
|-----44445555----5555-------------|
|-0000--------0000----111100001111-|



Figure 1B x6
|-------------------------|
|-------------------------|
|-------------------------|
|-------------------------|
|-4-4-4-5-5-5-3-3-3-3-2-3-|
|-4-4-4-5-5-5-1-1-1-1-0-1-|
  . . . . . . . . . . . .



Figure 2A x1
|-------------------------------------|
|-------------------------------------|
|-------------------------------------|
|-------------------------------------|
|-2-2-2-2-----2-2-2-2-----2-2-2-2-----|
|-0-0-0-0-----0-0-0-0-----0-0-0-0-----|
  . . . .     . . . .     . . . .



Figure 2B x1
|-------------------------------------------------|
|-------------------------------------------------|
|-------------------------------------------------|
|-------------------------------------------------|
|-2-2-2-2-----2-2-2-2-----2-2-2-2-----9-8-7-8-7-6-|
|-0-0-0-0-----0-0-0-0-----0-0-0-0-----7-6-5-6-5-4-|
  . . . .     . . . .     . . . .     . . . . . .





Figure 2C x2
|-------------------------------------------------|
|-------------------------------------------------|
|-------------------------------------------------|
|-------------------------------------------------|
|-2-2-2-2-2-2-2-2-2-2-2-2-2-2-2-2-2-2-9-8-7-8-7-6-|
|-0-0-0-0-0-0-0-0-0-0-0-0-0-0-0-0-0-0-7-6-5-6-5-4-|
  . . . . . . . . . . . . . . . . . . . . . . . . 



Figure 2D x2           Figure 2E x1
|-------------|        |-----------------|
|-------------|        |-----------------|
|-------------|        |-----------------|
|-------------|        |-----------------|
|-9-8-7-8-7-6-|        |-2---2---2---2---|
|-7-6-5-6-5-4-|        |-0---0---0---0---|
  . . . . . .
 


Figure 3 x10
|---------------------------------|
|---------------------------------|
|---------------------------------|
|-----------------------4-3-------|
|---4---4---4---4---4---2-1-4-3-4-|
|-0-2-0-2-0-2-0-2-0-2-0-----2-1-2-|
  . . . . . . . . . . . . . . . .

Guitar II plays this on first time
|---------------------------------|
|---------------------------------|
|---------------------------------|
|---------------------------------|
|-2-------------------------------|
|-0-------------------------------|
  .


Figure 4A x1
|-------------------------------------------------
|-------------------------------------------------
|-------------------------------------------------
|-------------------------------------------------
|-------------------------------------------------
|-0-0-0-2-2-2-1-1-1-0-0-0-2-2-2-1-1-1-4-4-4-1-1-1-
  . . . . . . . . . . . . . . . . . . . . . . . .

--------------------------------------------------|
--------------------------------------------------|
--------------------------------------------------|
--------------------------------------------------|
--------------------------------------------------|
--0-0-0-2-2-2-1-1-1-0-0-0-2-2-2-1-1-1-4-4-4-4-4-4-|
  . . . . . . . . . . . . . . . . . . . . . . . .



Figure 4B x1
|-------------------------------------------------
|-------------------------------------------------
|-------------------------------------------------
|-------------------------------------------------
|-------------------------------------------------
|-0-0-0-2-2-2-1-1-1-0-0-0-2-2-2-1-1-1-4-4-4-1-1-1-
  . . . . . . . . . . . . . . . . . . . . . . . .

----------------------------------------------|
----------------------------------------------|
----------------------------------------------|
----------------------------------------------|
----------------------------4-3-4-6---4-3-4-6-|
--0-0-0-2-2-2-1-1-1-0-0-0---2-1-2-4---2-1-2-4-|
  . . . . . . . . . . . .   . . .     . . .



Figure 5 x4
|----------------------------------------------------------|
|----------------------------------------------------------|
|----------------------------------------------------------|
|----------------------------------------------------------|
|---------33333333--------33333333--------33333333-4-3-4-6-|
|-00000000--------00000000--------00000000---------2-1-2-4-|
                                                   . . . 

Guitar II plays this on first time
|----------------------------------------------------------|
|----------------------------------------------------------|
|----------------------------------------------------------|
|----------------------------------------------------------|
|-2-----------------------33333333--------33333333-4-3-4-6-|
|-0---------------00000000--------00000000---------2-1-2-4-|
                                                   . . . 


Figure 6 x4 
|--------------------|
|--------------------|
|--------------------|
|---x6---------------|
|-4-3-4------4-3-4-6-|
|-2-1-2------2-1-2-4-|
  . . .      . . .



Figure 7 x4
|-----------------------------------------------------|
|-----------------------------------------------------|
|-----------------------------------------------------|
|--------------------------------------x4--------x4---|
|---------3-3-2-2---------3-3-2-2---t12p8p5---t11p7p4-|
|-0-0-2-2---------0-0-2-2-----------------------------|
  . . . . . . . . . . . . . . . .

Guitar II plays this on first time
|-----------------------------------------------------|
|-----------------------------------------------------|
|-----------------------------------------------------|
|--------------------------------------x4--------x4---|
|-2---------------------------------t12p8p5---t11p7p4-|
|-0---------------------------------------------------|
  .



Figure 8A x1
|--------------------------------------------------
|--------------------------------------------------
|--------------------------------------------------
|--------------------------------------------------
|-2------------------------------------------6-----
|-0------------------------------------------4-----
  
---------------------------------------------------|
---------------------------------------------------|
---------------------------------------------------|
---------------------------------------------------|
--3------------------------------------6-5-4-5-4-3-|
--1------------------------------------4-3-2-3-2-1-|
                                       . . . . . .




Figure 8B x3
|--------------------------------------------------
|--------------------------------------------------
|--------------------------------------------------
|--------------------------------------------------
|-2-2-2-2-2-2-2-2-2-2-2-2-2-2-2-2-2-2-2-2-2--6-6-6-
|-0-0-0-0-0-0-0-0-0-0-0-0-0-0-0-0-0-0-0-0-0--4-4-4-
  . . . . . . . . . . . . . . . . . . . . .  . . .

|--------------------------------------------------|
|--------------------------------------------------|
|--------------------------------------------------|
|--------------------------------------------------|
|-3-3-3-3-3-3-3-3-3-3-3-3-3-3-3-3-3-3--6-5-4-5-4-3-|
|-1-1-1-1-1-1-1-1-1-1-1-1-1-1-1-1-1-1--4-3-2-3-2-1-|
  . . . . . . . . . . . . . . . . . .  . . . . . .



Figure 9 x1
|-------------|
|-------------|
|-------------|
|-6-5-4-5-4-3-|
|-4-3-2-3-2-1-|
  . . . . . .



Figure 10A x3
|------------------------------|
|------------------------------|
|------------------------------|
|------------------------------|
|-----2222------------22226666-|
|-0000----222211110000---------|



Figure 10B x1
|------------------------------|
|------------------------------|
|------------------------------|
|------------------------------|
|-----2222--------2---2---6----|
|-0000----222211110---2---6----|
                  .   .   .

DONE!
Suggest correction
What's this?
You can suggest a correction to this tab. Community and Mods will review your correction and vote to approve or reject it.
comments
We did not receive enough feedback on this tab! Please rate:
print report bad tab
1 2 3 4 5
guest
You may want to rate the tab now too:
select rating
Please do not post tabs as comments. Select "correction" instead!