Oops, an error
Loading. Please wait.

Praise The Lord Opium Of The Masses Tab

version 1
version 1

Whole song

Interactive

1,364 views 3 this week
no commentswrite comment
1 2 3 4 5
please rate
add to favorites
launch autoscroll
font size
0
reset
how to read this tab
guitar tuner
Tab Pro tools
  • play this tab
  • loop segment
  • change instrument
  • show fretboard
  • metronome
×
Best way to learn
"Praise The Lord Opium Of The Masses"
Autoscroll
slow
fast
+/-
esc
set tempo
stop
Contributor
Difficulty
advanced
Praise The Lord (Opium of the Masses) by Dying Fetus
Tuning: C# (Step and a half down, low to high C#,F#,B,E,G#,C#)

Intro: (3x)   (pinch on 2nd riff of 2nd intro)
C#|---------------------------|     |------------------|
G#|---------------------------|     |------------------|
E |----------------------(3*)-|(3x) |------------------|(2x)
B |------4-5------------------|     |------------------|
F#|-4-3--2-3--4-3-4---5-4-3---|     |-2-4-3-2--4-3-2-2-|
C#|-2-1-------2-1-2---3-2-1---|     |-0-2-1-0--2-1-0-0-|

1st Section: (3x)
|-----------------------------------|
|-----------------------------------|
|-----------------------------------|(3x)
|-----------------------------------|
|-3---------------------------------|
|-1--h3h5h6-t12/13\12/13\12p6p5p3p0-|

|---------------------------------------------------------------|
|---------------------------------------------------------------|
|---------------------------------------------------------------|
|---------------------------------------------------------------|
|---------------------------------------------------------------|
|-h5h7h8-t14/15\14/15\14p8p7p5p0-h3h5h6-t12/13\12/13\12p6p5p3p0-|

|-----------------------------------|
|-----------------------------------|
|-----------------------------------|(2x)
|-----------------------------------|
|-3---------------------------------|
|-1--h3h5h6-t12/13\12/13\12p6p5p3p0-|

|------------------------------------------------|
|------------------------------------------------|
|------------------------------------------------|
|------------------------------------------------|
|-t12p5h8p5p0-t11p4h7p4p0-t9p1h5p2p0-t10p3h6p3p0-|
|------------------------------------------------|

|-----------------------------------|
|-----------------------------------|
|-----------------------------------|(3x)
|-----------------------------------|
|-3---------------------------------|
|-1--h3h5h6-t12/13\12/13\12p6p5p3p0-|

|---------------------------------------------------------------|
|---------------------------------------------------------------|
|---------------------------------------------------------------|
|---------------------------------------------------------------|
|---------------------------------------------------------------|
|-h5h7h8-t14/15\14/15\14p8p7p5p0-h3h5h6-t12/13\12/13\12p6p5p3p0-|

|-----------------------------------|
|-----------------------------------|
|-----------------------------------|(2x)
|-----------------------------------|
|-3---------------------------------|
|-1--h3h5h6-t12/13\12/13\12p6p5p3p0-|

|-----------------------------|
|-----------------------------|
|-----------------------------| 
|-6/7-----5/6-----4/5-----5/6-|
|-8/9-----7/8-----6/7-----7/8-|
|-----0-0-----0-0-----0-0-----|
 
2nd Section: (2x)
|--------------------------------|
|--------------------------------|
|--------------------------------|
|--------------------------------|
|--------------------------------|
|-0-1-3-1-4-3-1-3-0-1-3-1-4-3-1-3|
tr...............................

|-----------------------------------------|
|-----------------------------------------| 
|-----------------------------------------|
|-----------7-------------------7---------|
|-7-10-9-10---10-9-10-7-10-9-10---10-9-10-|
|-----------------------------------------|
tr.......................................

3rd Section: (4x)
|---------------------------------|
|---------------------------------|
|---------------------------------|
|---------------------------------|
|-3-5-3-6-3-5-3-6-3-5-3-6-3-5-3-6-|
|-1-3-1-4-1-3-1-4-1-3-1-4-1-3-1-4-|

|---------------------------------------------|
|---------------------------------------------|
|---------------------------------------------|
|----------------------------------t13p6h8h10-|
|-----------------------t13p6h8h10------------|
|-t13p6h8h10-t13p6h8h10-----------------------|

|---------------------------------------------|
|---------------------------------------------|
|----------------------------------t13p6h8h10-|
|-----------------------t13p6h8h10------------|
|-t13p6h8h10-t13p6h8h10-----------------------|
|---------------------------------------------|

|---------------------------------------------|
|---------------------------------------------|
|---------------------------------------------|
|----------------------------------t13p6h8h10-|
|-----------------------t13p6h8h10------------|
|-t13p6h8h10-t13p6h8h10-----------------------|

|-------------------------------------|
|-------------------------------------|
|----------------------------------8*-|
|-----------------------t13p6h8h10----|
|-t13p6h8h10-t13p6h8h10---------------|
|-------------------------------------|

4th Section:
|--------------------------------|
|--------------------------------|
|--------------------------------|
|--------------------------------|
|--------------------------------|
|-0-1-3-1-4-3-1-3-0-1-3-1-4-3-1-3|
tr...............................

|-----------------------------------------|
|-----------------------------------------| 
|-----------------------------------------|
|-----------7-------------------7---------|
|-7-10-9-10---10-9-10-7-10-9-10---10-9-10-|
|-----------------------------------------|
tr.......................................

|--------------------------------|
|--------------------------------|
|--------------------------------|
|--------------------------------|
|--------------------------------|
|-0-1-3-1-4-3-1-3-0-1-3-1-4-3-1-3|
tr...............................

|------------------------------------------|
|------------------------------------------| 
|------------------------------------------|
|-----------7-------------------7----------|
|-7-10-9-10---10-9-10-7-10-9-10---10-9-10*-|
|------------------------------------------|
tr....................................

5th Section
|---------------------------|
|---------------------------|
|---------------------------|
|---------------------------|
|-2-3-5--2-2--3-6---2-2-2-2-|
|-0-1-3--0-0--1-4---0-0-0-0-|

|-------------------------|
|-------------------------|
|-------------------------|
|-------------------------|
|-2-3-5--2-2--3-6---2-2-2-|
|-0-1-3--0-0--1-4---0-0-0-|

|---------------------------|
|---------------------------|
|---------------------------|(3x)
|---------------------------|
|-2-3-5--2-2--3-6---2-2-2-2-|
|-0-1-3--0-0--1-4---0-0-0-0-|

|-------------------------|
|-------------------------|
|-------------------------|
|-------------------------|
|-2-3-5--2-2--3-6---2-2-2-|
|-0-1-3--0-0--1-4---0-0-0-|

|---------------------------|
|---------------------------|
|---------------------------|(4x)
|---------------------------|
|-2-3-5--2-2--3-6---2-2-2-2-|
|-0-1-3--0-0--1-4---0-0-0-0-|

|------------------------|
|------------------------|
|---------------------3*-|(4x)
|--------3-3/6-5---------|
|-2-3-2--x-x-x-x--2-3----|
|-0-1-0--1-1/4-3--0-1----|

Solo:
|---------6-9-6---|
|--------7-----7--|
|-------7-------7-|(4x)
|-----------------|
|-6-9-6-----------|
|-----------------|

|----------8-11-8---|
|---------9------9--|
|--------9--------9-|(2x)
|-------------------|
|-8-11-8------------|
|-------------------|

|-14-12-11----------14-12-11----------14-12-11----------------------------|
|----------14-12-11----------14-12-11----------14-12-11-------------------|
|-------------------------------------------------------14-12-11----------|
|----------------------------------------------------------------14-12-11-|
|-------------------------------------------------------------------------|
|-------------------------------------------------------------------------|

|---------6-9-6---|
|--------7-----7--|
|-------7-------7-|(4x)
|-----------------|
|-6-9-6-----------|
|-----------------|

|----------8-11-8---|
|---------9------9--|
|--------9--------9-|(2x)
|-------------------|
|-8-11-8------------|
|-------------------|
                                                                       (3x)
|-14-12-11----------17-15-14----------14-12-11----------------------------|
|----------14-12-11----------17-15-14----------14-12-11-------------------|
|-------------------------------------------------------14-12-11----------|
|----------------------------------------------------------------14-12-11-|
|-------------------------------------------------------------------------|
|-------------------------------------------------------------------------|

|----------------------------------|
|----------------------------------|
|----------------------------------|(4x)
|-6-4-3--7-5-3--6-4-3--------------|
|----------------------6-4-3-------|
|----------------------------6-4-3-|

6th Section: (4x)
|-----------------|     |-----------------|
|-----------------|     |-----------------|
|-----------------|(3x) |-----------------|
|---------3-------|     |-----------------|
|-3/7-5-3-1-5-3-4-|     |-3/7-3-5-6-5-6-5-|
|-1/5-3-1---3-1-2-|     |-1/5-1-3-4-3-4-3-|

Repeat 1st Section (2x)

Repeat Intro & fade out.

Key:
/ - Slide
\ - Slide
* - Pinch Harmonic
t - Tap Note
tr - Tremelo Pick
h - Hammer On
p - Pull Off
comments
We did not receive enough feedback on this tab! Please rate:
print report bad tab
1 2 3 4 5
I want to post or [tab]
guest
You may want to rate the tab now too:
select rating
Please do not post tabs as comments. Select "correction" instead!