Oops, an error
Loading. Please wait.

Praise The Lord Tab

version 2
version 2

Whole song

2,404 views 3 this week
no commentswrite comment
1 2 3 4 5
2 more votes to show rating
add to favorites
launch autoscroll
font size
0
reset
how to read this tab
guitar tuner
Autoscroll
slow
fast
+/-
esc
set tempo
stop
Help us to improve Ultimate-Guitar.com Take our survey!
×
Author
Difficulty
intermediate
Dying Fetus 
Praise the Lord        
Destroy the Opposition
www.dyingfetus.com
Tabbed by Sean Beasley and Mike Kimball

Tuning is three half-steps down:
C#, F#, B, E, G#, C#. 

Notation:
/ or s = slide
h = hammer-on
p = pull-off
t = tap
tr = tremolo pick
(...x) = number of times
a riff is played 



part 1 (3x)
--------------------------(3x)-|------------(2x)-|
-------------------------------|-----------------|
-------------------------------|-----------------|
---------4-5-------------------|-----------------|
-4---3---2-3---4---3-4---5-4-3-|-2-4-3-2-4-3-2-2-|   
-2---1---------2---1-2---3-2-1-|-0-2-1-0-2-1-0-0-|

part 2 (3x)

2a
--------------------------(3x)-|
-------------------------------|
-------------------------------|
-------------------------------|
-3---2-hhh-t--sl-sl-sl-sl-pppp-|
-1---0-356-12/13\12/13\12-6530-|

2b
-------------------------------------------------
-------------------------------------------------
-------------------------------------------------
-------------------------------------------------
-hhh-t--sl-sl-sl-sl-pppp-hhh-t--sl-sl-sl-sl-pppp-
-578-14/15\14/15\14-8750-356-12/13\12/13\12-6530-

(repeat 2a, 2x)

-1st-ending---------------------------------|
--------------------------------------------|
--------------------------------------------|
-t--p-h-p-p-t--p-h-p-p-t-p-h-p-p-t--p-h-p-p-|
-12-5-8-5-0-11-4-7-4-0-9-2-5-2-0-10-3-6-3-0-|
--------------------------------------------|

-2nd-ending----------------------|
---------------------------------|
---s--------s--------s-------s---|
-10/11-----9/10-----8/9-----9/10-|
-8-/9------7/8------6/7-----7/8--|
-------0-0------0-0-----0-0------|

part 3 (2x) 
-------------(2x)--------|------------------------(2x)-|
-------------------------|-----------------------------|
-------------------------|-----------------------------|
-------------------------|---------------7-------------|
-------------------------|-7--10--9--10-----10--9--10--| 
-0--1--3--1--4--3--1--3--|-----------------------------|
 tr.....................   tr.........................

part 4 (4x)
-----------------------------------------------------------
-----------------------------------------------------------
-----------------------------------------------------------
-----------------------------------------------------------
-3--5--3--6--3--5--3--6--3--5--3--6--3--5--3--6--t--p-h-h--
-1--3--1--4--1--3--1--4--1--3--1--4--1--3--1--4--13-6-8-10-

-----------------------------------------------------------------------
-------------------------------------------------------------t--p-h-h--
---------------------t--p-h-h----------------------t--p-h-h--13-6-8-10-
-----------t--p-h-h--13-6-8-10-t--p-h-h--t--p-h-h--13-6-8-10-----------
-t--p-h-h--13-6-8-10-----------13-6-8-10-13-6-8-10---------------------
-13-6-8-10-------------------------------------------------------------

-------------------------------------------------------------------------|
-------------------------------------------------------------------------|
-------------------------------t--p-h-h----------------------t--p-h-h--8-|
---------------------t--p-h-h--13-6-8-10-t--p-h-h--t--p-h-h--13-6-8-10---|
-t--p-h-h--t--p-h-h--13-6-8-10-----------13-6-8-10-13-6-8-10-------------|
-13-6-8-10-13-6-8-10-----------------------------------------------------|

(repeat part 3, 2x)

part 5

5a
---------------------------------|
---------------------------------|
---------------------------------|
---------------------------------|
-2---3---5---2-2---3-6---2-2-2-2-|
-0---1---3---0-0---1-4---0-0-0-0-|

5b
---------------------------------|----------|----------|----------|
---------------------------------|----5a----|----5b----|----5a----|
---------------------------------|----------|----------|----------|
---------------------------------|---(3x)---|----------|---(4x)---|
-2---3---5---2-2---3-6---2--2--2-|----------|----------|----------|
-0---1---3---0-0---1-4---0--0--0-|----------|----------|----------|

part 6 (4x)
-----------------------------------------|
-----------------------------------------|
---------------------------------------3-|
----------------3----3/6----5------------|
-2----3----2---------------------2-3-----|
-0----1----0----1----1/4----3----0-1-----|

part 7 
---------6h9p6-----|----------8h11p8------|-14-12-11----------14-12-11--
---------------7---|-----------------9----|----------14-12-11-----------
-----------------8-|-------------------10-|-----------------------------
-------------------|----------------------|-----------------------------
-6-9-6-7-----------|-8-11-8-9-------------|-----------------------------
-----------(a, 4x)-|--------------(b, 2x)-|-----------------------------

----------14-12-11----------------------------|--------|--------|
-14-12-11----------14-12-11-------------------|--------|--------|
----------------------------14-12-11----------|-riff-a-|-riff-b-|
-------------------------------------14-12-11-|--(4x)--|--(2x)--|
----------------------------------------------|--------|--------|
----------------------------------------------|--------|--------|

-14-12-11----------17-15-14----------14-12-11----------------------------|
----------14-12-11----------17-15-14----------14-12-11-------------------|
-------------------------------------------------------14-12-11----------|
----------------------------------------------------------------14-12-11-|
-------------------------------------------------------------------------|
-(3x)--------------------------------------------------------------------|

part 8 (4x)
----------------------------------|
----------------------------------|
----------------------------------|
--6-4-3-3-7-4-3-3-6-4-3-----------|
------------------------6-4-3-----|
------------------------------6-4-|

part 9
--------------------------------|--------------------------------|
-------(3x)---------------------|--------------------------------|
--------------------------------|--------------------------------|
------------------3-------------|--------------------------------|
-3/7------5---3---1---5---4---5-|-3/7------3---5---6---5---6---3-|
-1/5------3---1-------3---2---3-|-1/5------1---3---4---3---4---1-|

(repeat part 2, then part 1)
Suggest correction
Give kudos to tab author, rate the tab!
1 2 3 4 5
comments
print report bad tab
guest
You may want to rate the tab now too:
select rating
Wanna post a correction for this tab? Suggest correction