Oops, an error
Loading. Please wait.

Reduced To Slavery Tab

version 2
version 2

Whole song

Interactive

315 views 3 this week
no commentswrite comment
1 2 3 4 5
please rate
add to favorites
launch autoscroll
font size
0
reset
how to read this tab
guitar tuner
Tab Pro tools
  • play this tab
  • loop segment
  • change instrument
  • show fretboard
  • metronome
Autoscroll
slow
fast
+/-
esc
set tempo
stop
Contributor
D Y I N G   F E T U S 
Reduced to slavery
tabbed by iron maiden xii


.  - palm mute           /  - slide up to
\  - slide down to       ~  - vibrato
h  - hammer on           b  - Bend
p  - pull off            Suffixes for bend
t  - tap                 f  - full bend    h - half bend
^ - pinched harmonic    q  - quarter bend t - tap bend
                           - Hold bend    r release bend
x  - Stuccatto           ~  - vibrato bend
,  - slight palm mute    () - ghost note, sustained note
"  - tremolo note        <> - Trill

Tune C#

RIFF 1 x4
|-------------------------------------------------------------------|
|-------------------------------------------------------------------|
|-------------------------------------------------------------------|
|-------------------------------------------------------------------|
|--7"—8"-7"—-7"------7"-8"-7"----6-5-4-7-6-5-4-2--------------------|
|----------9"—9"-7"----------9"--4-3-2-5-4-3-2-0--------------------|
                                 . . . . . . . .
                        FILL x2
|-------------------|-----------------------------------------------|
|-------------------|-----------------------------------------------|
|-------------------|-----------------------------------------------|
|-------------------|--910------------------------------------------|
|-------------------|--78-910-------------------------------8-2-8-9-|
|--BASS FILL--------|-----78--------------------------------6-0-6/7-|
                       .. ..                                  .

   Riff 2 x4
|-------------------------------------------------------------------|
|-------------------------------------------------------------------|
|-------------------------------------------------------------------|
|--------------------------910--------------------------------------|
|--2-5-4-2-8-7-2-5-4-2-8-7-78-910-2-5-4-2-8-7-2-5-4-2-8-7-8-2-8-9---|
|--0-3-2-0-6-5-0-3-2-0-6-5----78--0-3-2-0-6-5-0-3-2-0-6-5-6-0-6/7---|
   . . . . . . . . . . . . .. ..  . . . . . . . . . . . .   .

   Riff 3 x4
|-------------------------------------------------------------------|
|-------------------------------------------------------------------|
|-------------------------------------------------------------------|
|-------------------------------------------------------------------|
|------2^/3-45-45-7-2-7-2-6-7---------------------------------------|
|--000------23-23-5-0-5-0-4/5---------------------------------------|
   ...      .. ..   .   .
       Riff 4                                           End 1
|--------------------------------------------------|----------------|
|--------------------------------------------------|----------------|
|--------------------------------------------------|----------------|
|--------------------------------------------------|----------------|
|--------------------------------------------------|-5-7-7-7-7-7-6--|
|--000-000-0-000-0-000-0-0-0-0-0-0-000-000-0-000-0-|-3/5-5-5-5-5\4--|
   ... ... . ... . ... . . . . . . ... ... . ... .       .   .

   END 2                  RIFF 5
|------------|------------------------------------------------------|
|------------|------------------------------------------------------|
|------------|------------------------------------------------------|
|------------|------------------------------------------------------|
|--4-2-7-2-7-|--2-2-2-2-2-2-2-2-2-2-2-2-2-2-3-3-2-2-2-2-2-2-2-2-----|
|--2-0-5-0-5-|--0-0-0-0-0-0-0-0-0-0-0-0-0-0-1-1-0-0-0-0-0-0-0-0-----|
     .   .      . . . . . . . . . . . . . . . . . . . . . . . .

Play Riff 3 x4
Riff 4 end 1&2
Riff 5 end 1&2

  Riff 6 x4
|-------------------------------------------------------------------|
|-------------------------------------------------------------------|
|-------------------------------------------------------------------|
|-------------------------------------------------------------------|
|---------------2-5-2—1-4-1---------------2-5-2--1-4-1--------------|
|--222-32-52-32------3-----2-222-32-52-32---------------------------|
   ... .. .. .. . . ... . .. ... .. .. ..

  Riff 7a x4
|-------------------------------------------------------------------|
|-------------------------------------------------------------------|
|-------------------------------------------------------------------|
|---------------------------------------------6-5-------------------|
|----2"—2"-3"-2"-7"-7---------3---------67-67-4-3-------------------|
|--0"—0"------------5-000-0-0-1-000-0-0-45-45-----------------------|
                      ... . .   ... . . .. ..
  Riff 7b                 Riff 7c x2
|----------------------|------------------------|
|----------------------|------------------------|
|----------------------|------------------------|
|----------------------|------------------------|
|--7---------3---------|-67-67-t11p7p4-t10p6p3--|
|--5-000-0-0-1-000-0-0-|-45-45------------------|
     ... . .   ... . .   .. ..

Play Riff 7b
Riff 7c x3

  End 1
|-------------------|
|-------------------|
|-------------------|
|-------------------|
|t11p7p4-t13p9p6-752|
|----------------530|
                 ..


    End riff 8 x6
|-------------------------------------------------------------------|
|-------------------------------------------------------------------|
|-------------------------------------------------------------------|
|-------------------------------------------------------------6-----|
|--6-5-5-9-6-5-5-9-----------------6-5-5-9-6-5-5-9---------9--4-9-10|
|--4-3-3/7-4-3-3/7-0-0-0-0-000-000-4-3-3/7-4-3-3/7-000-000-7----7-8-|
   . .     . .     . . . . ... ... . .     . .     ... ... .  . . .
comments
We did not receive enough feedback on this tab! Please rate:
print report bad tab
1 2 3 4 5
I want to post or [tab]
guest
You may want to rate the tab now too:
select rating
Please do not post tabs as comments. Select "correction" instead!