Oops, an error
Loading. Please wait.

Rohypnol Tab

430 views 1 this week
no commentswrite comment
1 2 3 4 5
2 more votes to show rating
add to favorites
launch autoscroll
font size
0
reset
how to read this tab
guitar tuner
Autoscroll
slow
fast
+/-
esc
set tempo
stop
Help us to improve Ultimate-Guitar.com Take our survey!
×
Dying Fetus
History Repeats
Rohypnol

.  - palm mute
\  - slide down to
/  - slide up to
h  - hammer on
p  - pull off
t  - tap
ph - pinch harmonic
~  - vibrato
b  - bend
r  - release bend
tr - trill
*  - comment

Tuning: C# F# B E G# C#

Guitar I - John Gallagher (Right channel)
Guitar II - John Gallagher (Left channel)


--------------------------------------
* This song is only like 40 seconds so
I thought why not tab it.
--------------------------------------



Figure 1A x3
|-----------------------------------|
|-----------------------------------|
|-----------------------------------|
|-----------------------------------|
|-3-2-2---2-2-2-2---3-2-2-3---6-6\3-|
|-1-0-0---0-0-0-0---1-0-0-1---4-4\1-|
          . . . .

------------------------------------|
------------------------------------|
------------------------------------|
------------------------------------|
--3-2-2---2-2-2-2---3-2-2-3---5-5\3-|
--1-0-0---0-0-0-0---1-0-0-1---3-3\1-|
          . . . .





Figure 1B x1
|-----------------------------------|
|-----------------------------------|
|-----------------------------------|
|-----------------------------------|
|-3-2-2---2-2-2-2---3-2-2-3---6-6\3-|
|-1-0-0---0-0-0-0---1-0-0-1---4-4\1-|
          . . . .

------------------------------------|* Let the last chord ring
------------------------------------|
------------------------------------|
------------------------------------|
--3-2-2---2-2-2-2---3-2-2-3---5-----|
--1-0-0---0-0-0-0---1-0-0-1---3-----|
          . . . .



THE INSANE FIGURE x8
|-----------------------------|* Play this as fast as you can
|-----------------------------|
|-----------------------------|
|-----------------------------|
|---------------332211--------|
|-331100-331100--------331100-|



End the song with this
|---|
|---|
|---|
|---|
|-2-|
|-0-|

DONE!
Suggest correction
Give kudos to tab author, rate the tab!
1 2 3 4 5
comments
print report bad tab
guest
You may want to rate the tab now too:
select rating
Wanna post a correction for this tab? Suggest correction