Oops, an error
Loading. Please wait.

Skull Fucked Tab

1,582 views 1 this week
no commentswrite comment
1 2 3 4 5
3 more votes to show rating
add to favorites
launch autoscroll
font size
0
reset
how to read this tab
guitar tuner
Autoscroll
slow
fast
+/-
esc
set tempo
stop
Help us to improve Ultimate-Guitar.com Take our survey!
×
Artist: Dying fetus
Album: Purification Through The Violence
Song: Skull Fucked
Transcribed by:Alvaro Ramirez
Email me for any comments or corrections:lazyguitarist@gmail.com
Tune guitars to C#


.  - palm mute           /  - slide up to     ah - Artificial harmonics
\  - slide down to       ~  - vibrato         __ - Tremolo pick
h  - hammer on           b  - Bend
p  - pull off            Suffixes for bend
t  - tap                 f  - full bend    h - half bend
ph - pinched harmonic    q  - quarter bend t - tap bend
*  - see comment         ^  - Hold bend    r release bend
x  - Staccato            ~  - vibrato bend
,  - slight palm mute    () - ghost note, sustained note
"  - tremolo note        <> - Trill

Intro both guitars
|----------------------7--ah---------------------|
|-------------------7-----7--ah------------------|
|----------------------------7-------------------|
|-9h10p9-9-7h9p7-7-------------------------------|4x
|------------------------------------------------|
|--------------------------------555-555-444-444-|
                                 ... ... ... ...

Riff 1                               Outro 1
|--------------------------------|   |-----|
|--------------------------------|   |-----|
|--------------------------------|   |-----|
|-ph--------------ph-------------|2x |-----|
|-3--5-4-5-4-5-4--3--5-4-5-4-5-4-|   |--4--|
|----3-2-3-2-3-2-----3-2-3-2-3-2-|   |--2--|
     . . . . . .     . . . . . .        x

Riff 2 both guitars
|-----------------------------------|
|-----------------------------------|
|-----------------------------------|
|-----------------------------------|4x
|-----------------------------------|
|-3333-22222222-1111-0000-1111-2222-|


Riff 3 both guitars
|-----------------------------------------|
|-----------------------------------------|
|-----------------------------------------|
|-----------------------------------------|4x
|-2222------2222------5555------6666------|
|------2222------2222------2222------2222-|


Riff 4 both guitars
|---------------------------------------------------------|
|---------------------------------------------------------|
|---------------------------------------------------------|
|---------------------------------------------------------|2x
|-4----..weird-sitar..------------------------------------|
|-2---------------------3333-22222222-1111-0000-1111-2222-|
  x 

Repeat
Riff 3 4x

Riff 5 both guitars
|-----------------------------------------------------------------|
|-----------------------------------------------------------------|
|-----------------------------------------------------------------|
|-----------------------------------------------------------------|4x
|-4---4-----6-7---4---4-----6-7---4---4-----6-7---4---4---5---5---|
|-2-0-2-0-0-4-5-0-2-0-2-0-0-4-5-0-2-0-2-0-0-4-5-0-2-0-2-0-3-0-3-0-|
    .   . . . . .   .   . . . . .   .   . .     .   .   .   .   .   


Riff 6 both guitars
|---------------------------------------------------|
|-------------------77777777------------------------|
|-44444444h7p6p4444----------7p64444447p644444444p3-|
|---------------------------------------------------|4x
|---------------------------------------------------|
|---------------------------------------------------|


Riff 7 guitar one
|--------------------------------------------------------------|
|--------------------------------------------------------------|
|--------------------------------------------------------------|
|---------------------7-6----------------------------7-6-------|
|-5-4-4--5-4-4--5-4-7-5-4-4-5-6--5-4-4--5-4-4--5-4-7-5-4-4-5-6-|
|-3-2-2--3-2-2--3-2-5-----2-3-4--3-2-2--3-2-2--3-2-5-----2-3-4-|
| . . .  . . .  . . . . . . . .  . . .  . . .  . . . . . . . .
|
|--------------------------------------------------------------|
|--------------------------------------------------------------|
|--------------------------------------------------------------|
|----------------------------------------------------7-6-------|
|--------------------------------5-4-4--5-4-4--5-4-7-5-4-4-5-6-|
|--------------------------------3-2-2--3-2-2--3-2-5-----2-3-4-|
                                 . . .  . . .  . . . . . . . .

Riff 8 both guitars
|-------------------------|
|-------------------------|
|-------------------------|
|---------------------7-6-|
|-5-4-4--5-4-4--5-4-7-5-4-|
|-3-2-2--3-2-2--3-2-5-----|
  . . .  . . .  . . . . .

Riff 9 both guitars
|--------------------------------------------------------------|
|--------------------------------------------------------------|
|--------------------------------------------------------------|
|---------------------7-6----------------------------7-6-------|2x
|-5-4-4--5-4-4--5-4-7-5-4-4-5-6--5-4-4--5-4-4--5-4-7-5-4-4-5-6-|
|-3-2-2--3-2-2--3-2-5-----2-3-4--3-2-2--3-2-2--3-2-5-----2-3-4-|
  . . .  . . .  . . . . . . . .  . . .  . . .  . . . . . . . .

Riff 10
|---------------------------------------------------|
|---------------------------------------------------|
|---------------------------------------------------|
|-----------------------------------------7-6-------|2x
|-----------------------------------5-4-7-5-4-4-5-6-|
|-33332222222222223333222222222222--3-2-5-----2-3-4-|
                                    . . . . . . . . 

Riff 11 guitar one
|-----------------------------------------------|
|-----------------------------------------------|
|-----------------------------------------------|
|-------------------------------------------4-3-|
|-4-----4-5---4-4---4-5---4-----4-5---4-5---2-1-|
|-2-0-0-2-3-0-2-2-0-2-3-0-2-0-0-2-3-0-2-3-0-----|
|   . .     . . . .     .   . .     .     .
|       guitar two
|-----------------------------------------------|
|-----------------------------------------------|
|-----------------------------------------------|
|-------------------------------------------4-3-|
|-------------------------4-----4-5---4-5---2-1-|
|-------------------------2-0-0-2-3-0-2-3-0-----|
                            . .     .     . 

Riff 12 both guitars
|-----------------------------------------------|
|-----------------------------------------------|
|-----------------------------------------------|
|-------------------------------------------4-3-|3x
|-4-----4-5---4-4---4-5---4-----4-5---4-5---2-1-|
|-2-0-0-2-3-0-2-2-0-2-3-0-2-0-0-2-3-0-2-3-0-----|
    . .     . . . .     .   . .     .     .

Riff 13 both guitars
|--------------------------------------------------------|
|--------------------------------------------------------|
|--------------------------------------------------------|
|----------------------------------------------------4-3-|
|-5--4-3-4-----3-4---5---3-4--5--4-3-4-----3-4---4---2-1-|
|-3--2-1-2-0-0-1-2-0-3-0-1-2--3--2-1-2-0-0-1-2-0-2-0-----|
     . .   . .     .   .         . .   . .     .   .

Riff 14 both guitars
|--------------------------------------------------------|
|--------------------------------------------------------|
|--------------------------------------------------------|
|--------------------------------------------------------|
|-5--4-3-4-----3-4---5---3-4--5--4-3-4-----4--5--5--5----|
|-3--2-1-2-0-0-1-2-0-3-0-1-2--3--2-1-2-0-0-2--3--3--3----|
     . .   . .     .   .         . .   . .    *  *  *        

* = accent
                                                          
Repeat
Riff 13
Riff 14
Riff 1 4x
Outro 1

The End..
Suggest correction
Give kudos to tab author, rate the tab!
1 2 3 4 5
comments
print report bad tab
guest
You may want to rate the tab now too:
select rating
Wanna post a correction for this tab? Suggest correction