Oops, an error
Loading. Please wait.

Twisted Truth Tab

206 views 1 this week
no commentswrite comment
1 2 3 4 5
please rate
add to favorites
launch autoscroll
font size
0
reset
how to read this tab
guitar tuner
Tab Pro tools
  • play this tab
  • loop segment
  • change instrument
  • show fretboard
  • metronome
×
Best way to learn
"Twisted Truth"
Autoscroll
slow
fast
+/-
esc
set tempo
stop
Contributor
Dying Fetus
History Repeats 
Twisted Truth (Pestilence Cover) 

.  - palm mute
\  - slide down to
/  - slide up to
h  - hammer on
p  - pull off
t  - tap
ph - pinch harmonic
~  - vibrato
b  - bend
r  - release bend
tr - trill
*  - comment

Tuning: C# F# B E G# C#

Guitar I - John Gallagher (Left channel)
Guitar II - John Gallagher (Right channel)



Figure 1 x4
|----------------------------------------
|----------------------------------------
|----------------------------------------
|----------------------------------4---3-
|-2---4------7---5------2---4------2---1-
|-0---2------5---3------0---2------------

-----------------------------------------|
-----------------------------------------|
-----------------------------------------|
-----------------------------------4---5-|
--2---4------7---5------2---4------2---3-|
--0---2------5---3------0---2------------|


Guitar II plays this on first time
|----------------------------------------
|----------------------------------------
|----------------------------------------
|-----------------------------\Pickslide-
|-----------------------------\Pickslide-
|----------------------------------------

-----------------------------------------|
-----------------------------------------|
-----------------------------------------|
-----------------------------------4---5-|
--2---4------7---5------2---4------2---3-|
--0---2------5---3------0---2------------|



Figure 2 x2
|--------------------------------------------|
|--------------------------------------------|
|--------------------------------------------|
|--------------11--10---------------10\------|
|--------------9---8----------------8-\------|
|-000000000000---------000000000000----------|
  ............         ............



Figure 3A x1
|------------------------------|
|------------------------------|
|------------------------------|
|------------------------------|
|-7-------8-------7-------8----|
|-5-------5-------5-------5----|
                         



Figure 3B x1
|-------------------------------|
|-------------------------------|
|-------------------------------|
|-9-------10------9-------10----|
|-7-------7-------7-------7-----|
|-------------------------------|

Play Figure 3A x1
Play Figure 3B x1
Play Figure 1 x2
Play Figure 2 x4

Figure 4 x4
|---------------------------------|
|---------------------------------|
|---------------------------------|
|---------------------------------|
|-6-----6-----5---6-----6-----4---|
|---5-3---5-3---4---5-3---5-3---3-|
    . .   . .   .   . .   . .   .



Figure 5 x1
|---------------------------------|
|---------------------------------|
|---------------------------------| GUITAR I
|---------------------------------|
|-3-2---4-3---5-4-6-5---7-6---8-7-|
|-----3-----4---------6-----7-----|

|----------------------------------|
|----------------------------------|
|----------------------------------| GUITAR II
|-5-4---6-5---7-6-8-7---9-8---10-9-|
|-----5-----6---------8-----9------|
|----------------------------------|




Figure 6 x1
|------------------------------|
|------------------------------|
|------------------------------|
|-4-------5-------4-------5----|
|-3-------3-------3-------3----|
|------------------------------|

Play Figure 3B x1
Play Figure 6 x1
Play Figure 3B x1
Play Figure 1 x3
Play Figure 2 x4
Play Figure 4 x2


Figure 7 x3
|---------------------------------|* It's almost exactly
|---------------------------------|  the same as Figure 4
|---------------------------------|
|---------------------------------|
|-6-----6-----5---6-----6-----4---|
|---5-3---5-3---4---5-3---5-3---3-|
    . .   . .      . .   . .   .

Play Figure 5 x1

DONE!
comments
We did not receive enough feedback on this tab! Please rate:
print report bad tab
1 2 3 4 5
I want to post or [tab]
guest
You may want to rate the tab now too:
select rating
Please do not post tabs as comments. Select "correction" instead!