Oops, an error
Loading. Please wait.

Visualize Permanent Damnation Tab

1,272 views 1 this week
1 commentread comment
1 2 3 4 5
please rate
add to favorites
launch autoscroll
font size
0
reset
how to read this tab
guitar tuner
Autoscroll
slow
fast
+/-
esc
set tempo
stop
Help us to improve Ultimate-Guitar.com Take our survey!
×
Author
Difficulty
Tuning
advanced
C G C F A D
Dying Fetus
Album: Infatuation With Malevolence
Song:  Visualize Permanent Damnation

.  - palm mute           /  - slide up to
  - slide down to       ~  - vibrato
h  - hammer on           b  - Bend
p  - pull off            Suffixes for bend
t  - tap                 f  - full bend    h - half bend
ph - pinched harmonic    q  - quarter bend t - tap bend
*  - see comment         ^  - Hold bend    r release bend
x  - Stuccatto           ~  - vibrato bend
,  - slight palm mute    () - ghost note, sustained note
"  - tremolo note        <> - Trill

|---------------------------------||--------15h19p15-----|
|------------------------------15-||------16--------15---|
|-------------------------15h17---||o---17------------16-|
|-----------------15h17h19--------||o-17-----------------|
|---------15h17h19----------------||---------------------|
|-12h15h17------------------------||---------------------|

[      x6     ]                         x2
-181715--------|-------19-18--------------||
-------171514-|-----17------20-19-17~-----||
---------------|---16------------------o--||
---------------|-17--------------------o--||
---------------|--------------------------||
---------------|--------------------------||


|------------------------------------------------------|
|-17~-17-19-20b-19-19h20p19h20p19p17-17~~-16h17p16-15~-|
|------------------------------------------------------|
|------------------------------------------------------|
|------------------------------------------------------|
|------------------------------------------------------|

|-20p19p17----------20p19p17------------------------------------|
|---------19p17p16----------19p17p16-19p17p16---------19p17p16--|
|--------------------------------------------18p17p15-----------|
|---------------------------------------------------------------|
|---------------------------------------------------------------|
|---------------------------------------------------------------|

-------------------------------------------------------------|
-------------------------------------------------------------|
-18p17p15----------------------------------------------------|
----------18p17p15--------18p17p15---------------------------|
------------------18p17p15--------18p17p15-18p17p15----------|
---------------------------------------------------18p17p15--|

               [               Second Guitar                   ]
---------------t------t------t------t------t------t------t------|
---------------12p8p5-12p8p5-12p8p5-12p8p5-13p9p6-13p9p6-13p9p6-|
----------------------------------------------------------------|
----------------------------------------------------------------|
----------------------------------------------------------------|
-15p14p12-12~~~~~~~~~~~~~---------------------------------------|

-t-------t------t------t------t------|
-13p19p6-11p7p4-11p7p4-11p7p4-11p7p4-|
-------------------------------------|
-------------------------------------|
-------------------------------------|
-------------------------------------|

||-----15h18p15----------17h20p17----------14h17p14-------|
||---17--------17-16---19--------19-18---16--------16-15--|
||-18----------------20----------------17-----------------|
||--------------------------------------------------------|
||--------------------------------------------------------|
||--------------------------------------------------------|

                                           x2
-----16h19p16--------18-17-15--------------||
---18---------18-17----------18-17-15------||
-19----------------------------------17-15-||
-------------------------------------------||
-------------------------------------------||
-------------------------------------------||

|-------17192019-|-201917-191716-201917-191716----------------------|
|-151718---------|-----------------------------201917-191716-201917-|
|----------------|--------------------------------------------------|
|------[x4]------|--------------------------------------------------|
|----------------|--------------------------------------------------|
|----------------|--------------------------------------------------|

-----------------------------------------------------------|
-----------------------------------------------------------|
-201917-191716-201917----------------------------/15~-14~--|
----------------------201917-191716-171514-151412----------|
-----------------------------------------------------------|
-----------------------------------------------------------|

|--------------------|--------------------------------------------|
|--------------------|--------------------------------------------|
|--------------------|-------------------------------151718-------|
|-181715-------------|-------------121415------151718------121415-|
|-------181715-------|-------121415------151718-------------------|
|-------------181715-|-121415-------------------------------------|

-----------------------20-22b~~-20-21-19-21-17-/20-19b~~-|
-------121415-/18~-17~-----------------------------------|
-121415--------------------------------------------------|
---------------------------------------------------------|
---------------------------------------------------------|
---------------------------------------------------------|

|---18h20p18-21p19-18-21p19-18-21p19-18--21p19p18-20p19p17-|
|-19-------------------------------------------------------|
|----------------------------------------------------------|
|----------------------------------------------------------|
|----------------------------------------------------------|
|----------------------------------------------------------|

----------------------------------------------------------|
--20p19p17----------------17h19h20p19p17------------------|
----------20p19p17----------------------20p19p17----------|
------------------20p19p17----------------------20p19p17--|
----------------------------------------------------------|
----------------------------------------------------------|

--------------------------------|----------------------------------|
--------------------------------|----------------------------------|
-17h19h20p19p17-----------------|--a---a-----------a-----------8-9-|
---------------20p19p17---------|-10p9-7p6-a---a---7~-----7-10-----|
-----------------------20p19p17-|----------8p7-6p5----5-8----------|
--------------------------------|----------------------------------|

------/20b~~--------15h18-------------------------------------------|
-9bph~------17~---17-----20p19-20p19p17------------18p17-19fb~~~19~-|
----------------18---------------------19p18-16-19------------------|
--------------------------------------------------------------------|
--------------------------------------------------------------------|
--------------------------------------------------------------------|

END
Suggest correction
What's this?
You can suggest a correction to this tab. Community and Mods will review your correction and vote to approve or reject it.
comments
We did not receive enough feedback on this tab! Please rate:
print report bad tab
1 2 3 4 5
1 comment total.
0 reply
thebat 54 wrote on June 29 2013, 11:29 am

Absolutely Stellar post, thanks heaps man, very very well done!!!

guest
You may want to rate the tab now too:
select rating
Please do not post tabs as comments. Select "correction" instead!