Oops, an error
Loading. Please wait.

We Are Your Enemy Tab

version 1
version 1

Whole song

Interactive

795 views 1 this week
no commentswrite comment
1 2 3 4 5
3 more votes to show rating
add to favorites
launch autoscroll
font size
0
reset
how to read this tab
guitar tuner
Autoscroll
slow
fast
+/-
esc
set tempo
stop
Help us to improve Ultimate-Guitar.com Take our survey!
×
Artist: Dying Fetus
Album: Killing On Adrenaline
Song: We Are Your Enemy
Transcribed by:Alvaro Ramirez
Email me for any comments or corrections:lazyguitarist@musician.net
Tune guitars to C#
==========================================================
This is my favorite song from Dying Fetus.I worked my ass 
so it should be accurate.
==========================================================
.  - palm mute           /  - slide up to     ah - Artificial harmonics
\  - slide down to       ~  - vibrato
h  - hammer on           b  - Bend
p  - pull off            Suffixes for bend
t  - tap                 f  - full bend    h - half bend
ph - pinched harmonic    q  - quarter bend t - tap bend
*  - see comment         ^  - Hold bend    r release bend
x  - Staccato            ~  - vibrato bend
,  - slight palm mute    () - ghost note, sustained note
"  - tremolo note        <> - Trill


Intro
|-------------------|
|-------------------|
|-------------------|
|-------------------|8x
|-9-9-7-7-----------|
|---------10-10-6-6-|
  . . . . .  .  . .


Riff 1
|---------------------------------------------------------|
|---------------------------------------------------------|
|----------------------ph---------------------------------|
|-------------7--5--4--5----------------------------------|
|-5------------------------5-----------2h5p2h5p-1h4p1h4p--|
|-3--0"-2"-3"--------------3--0"-2"-3"--------------------|
                                       

Riff 2
|-----------------------------------------------|
|-----------------------------------------------|
|----------------------ah-----------------------|
|-------------7--5--4--5------------------------|
|-5---------------------------------------------|
|-3--0"-2"-3"-------------35-55-55-55-66-66-66--|
                          .. .. .. .. .. .. ..         

Repeat
Riff 1
Riff 2

Riff 3 
|-------------------------------------------------------|
|-------------------------------------------------------|
|-------------------------------------------------------|
|-------------------------------------------------------|
|---------------------------------------2-5-2-5-1-4-1-4-|
|-33-000-222-33-55-33-22-33-0-0-000-000-----------------|
     ... ...                . . ... ...       

Riff 4
|-------------------------------------------------------------|
|-------------------------------------------------------------|
|-------------------------------------------------------------|
|-------------------------------------------------------------|
|----------------------------7-7-7-7-7-7-7-7--8-8-8-8-8-8-8-8-|
|-33-000-222-33-55-33-22-33--5-5-5-5-5-5-5-5--6-6-6-6-6-6-6-6-|
     ... ...                   . . . . . . .    

Repeat 
Riff 3 
Riff 4
Riff 3
Riff 4

Riff 5 A (note: This riff may be wrong but it sounds ok.)
|-----------------------------------------|
|-----------------------------------------|
|-----------------------------------------|
|-----------------------------------------|
|-----------------------------------------|
|-0-0-5-0-3-5-0-0-6-0-0-5-0-0-5-0-3-6-4-3-|
  . . . . . . . . . . . . . . . . . . . .
       B
|---------------------------------------|
|---------------------------------------|
|---------------------------------------|
|---------------------------------------|
|---------------------------------7-8-7-|
|-6666555-0-0-5-0-3-5-0-0-6-0-0-6-5-6-5-|
  ....... . . . . . . . . . . . . . . .

       C
|-------------------------------------------------|
|-------------------------------------------------|
|-------------------------------------------------|
|-------------------------------------------------|
|-------------------------------------------------|
|-0-0-5-0-3-5-0-0-6-0-0-5-0-0-5-0-3-6-4-3-6666555-|
  . . . . . . . . . . . . . . . . . . . . .......

       D
|--------------------------------------------------|
|--------------------------------------------------|
|--------------------------------------------------|
|--------------------------------------------------|
|-----------------------------------------8-7-8-10-|
|-0-0-5-0-3-5-0-0-6-0-0-5-0-0-5-0-3-6-4-3-6-5-6-8--|
  . . . . . . . . . . . . . . . . . . . . . . . .

Riff 7
|----------------------------------------------------------|
|----------------------------------------------------------|
|----------------------------------------------------------|
|----------------------------------------------------------|4x
|-7-----6-----5-6-5-4-5-4-3-4--7-----6-----4-4-4-4-4-4-4-5-|
|-5-0-0-4-0-0-3-4-3-2-3-2-1-2--5-0-0-4-0-0-2-2-2-2-2-2-2-3-|
    . .   . . . . . . . . . .    . .   . . . . . . . . . . 

Riff 8
|---------------------------------|
|---------------------------------|
|---------------------------------|
|---------------------------------|
|-4-----4-5---------6-5-4-5-4-5-4-|
|-2-0-0-2-3-0-0-0-0-4-3-2-3-2-3-2-|
    . .   . . . . . . . . . . . .

Riff 9
|------------------------------|
|------------------------------|
|------------------------------|
|------------------------------|
|-4-----4-5---------6-5-4-5-4--|
|-2-0-0-2-3-0-0-0-0-4-3-2-3-2--|
    . .   . . . . . . . . . .

Repeat
Riff 8

Riff 10
|--------------------------------|
|-----------------------------ph-|
|-----------------------------3--|
|--------------------------------|
|-4-----4-5---------6-5-4-5-4----|
|-2-0-0-2-3-0-0-0-0-4-3-2-3-2----|
    . .   . . . . . . . . . .

Repeat 
Riff 9

Riff 11
|--------------------------------|
|--------------------------------|
|--------------------------------|
|-----------------------------ph-|
|-4-----4-5---------6-5-4-5-4-3--|
|-2-0-0-2-3-0-0-0-0-4-3-2-3-2----|
    . .   . . . . . . . . . .

Repeat
Riff 8

Riff 12
|-----------------------------ph-|
|-----------------------------3--|
|--------------------------------|
|--------------------------------|
|-4-----4-5---------6-5-4-5-4----|
|-2-0-0-2-3-0-0-0-0-4-3-2-3-2----|
    . .   . . . . . . . . . .

Riff 13
|------------------------------------------------|
|------------------------------------------5-6-8-|
|------------------------------------5-6-8-------|
|------------------------------5-6-8-------------|2x
|------------------------5-6-8-------------------|
|-566-555-566-555--5-6-8-------------------------|
  ... ... ... ...  , , , , , , , , , , , , , , ,

Riff 14
|-------------------------------------------------|
|-------------------------------------------5-6-8-|
|-------------------------------------5-6-8-------|
|-------------------------------5-6-8-------------|2x
|-------------------------5-6-8-------------------|
|-/6666555566663333-5-6-8-------------------------|
                    , , , , , , , , , , , , , , ,

Riff 15
|------------------------------|
|------------------------------|
|------------------------------|
|------------------------------|8x
|-7--------5-----------------8-|
|-5-000000-3-000000-3"-2"-0"-6-|
    ......   ......

Riff 16 under solo
|--------------------------|
|--------------------------|
|--------------------------|
|--------------------------|
|-7---8-7---8-7---8-7---2--|
|-5---6-5---6-5---6-5---0--|
                        x

The solo...Are you crazy?

Riff 17
|----------------------------------------------|
|----------------------------------------------|
|----------------------------------------------|
|----------------------------------------------|2x
|-8-7--------------8-7-------------------------|
|-6-5-000000000000-6-5-0-0-0-0-0-0-0-0-0-0-0-0-|
      ............     . . . . . . . . . . . .

Riff 18
|------------------------------|
|------------------------------|
|------------------------------|
|------------------------------|4x
|-8-7--------------------------|
|-6-5-0-0-0-0-0-0--0-0-0-0-0-0-|
      . . . . . .  . . . . . .

Repeat 
Riff 17 2x
Riff 18 4x

Riff 19
|-------------------------------|
|-------------------------5-6-8-|
|-------------------5-6-8-------|
|-------------5-6-8-------------|
|-------5-6-8-------------------|
|-5-6-8-------------------------|
  , , , , , , , , , , , , , , ,

Repeat 
Riff 1
Riff 2
Riff 1
Riff 2

The end
Suggest correction
Give kudos to tab author, rate the tab!
1 2 3 4 5
comments
print report bad tab
guest
You may want to rate the tab now too:
select rating
Wanna post a correction for this tab? Suggest correction