Oops, an error
Loading. Please wait.

Boyz In The Hood Tab

version 2
version 2

Whole song

67,137 views 24 this week
6 commentsread comments
1 2 3 4 5
x 15
add to favorites
launch autoscroll
font size
0
reset
how to read this tab
guitar tuner
Autoscroll
slow
fast
+/-
esc
set tempo
stop
Help us to improve Ultimate-Guitar.com Take our survey!
×
Tabbed By Louis Estrada

Main Part:

E------------------------0-0--------0------0-2-0------2---|
B---2----2--------2------3---0----4---4---2---------2---2-|
G------2---2----2---2---2--------2---2-------------2------|
D-----2--------2------0----0---1----1---2----2---3----3---|
A---0----0---4----4---------------------------------------|
E---------------------------------------------------------|

E--------2--------2----|
B------2---2----3---3--|
G-----2--------2-------|
D---4----2---0----0----|
A----------------------|
E----------------------|

Riff 1 - play near the end of verse 5:

   ...making that G T A
E-----------------9-9-7\5----|
B----------------------------|
G----------------------------|
D----------------------------|
A----------------------------|
E----------------------------|

Riff 2 - play during the second half of verse 7

  ...and I start drinkin... (continue until end of verse)
E-----------12---12-----|
B-------------10---10---|
G-----------------------|
D-----------------------|
A-----------------------|
E-----------------------|


Alternate Main Part (for verse 9)

{ Guitar Riffs
{ E-----------------------------------------------------9---|
{ B--------------------------------------------10--12-------|
{ G---------------------------------------------------------|
{ D---------------------------------------2/----------------|
{ A---------------------------------------------------------|
{ E---------------------------------------------------------|
{
{ Main Guitar
{ E------------------------------------------0-2-0------2---|
{ B---2----2--------2-----------------------2---------2---2-|
{ G------2---2----2---2------------------------------2------|
{ D-----2--------2------0-----------------2----2---3----3---|
{ A---0----0---4----4---------------------------------------|
{ E---------------------------------------------------------|


{ Guitar Riffs
{ E---10--9---7---5--0---|
{ B----------------------|
{ G--11--9---7---6---1---|
{ D----------------------|
{ A----------------------|
{ E----------------------|
{
{ Main Guitar
{ E--------2--------2----|
{ B------2---2----3---3--|
{ G-----2--------2-------|
{ D---4----2---0----0----|
{ A----------------------|
{ E----------------------|

Chorus:
The riffs are played on a second guitar with chords
(shown in first staff) in the background


Chorus chords (repeat twice for each chorus)

    A       F#m      Bm7       E
E---5--------2--------7--------7--------|
B---5--------2--------7--------9--------|
G---6--------2--------7--------9--------|
D---7--------4--------9--------9--------|
A---7--------4--------9--------7--------|
E---5--------2--------7-----------------|

First Chorus ("Crusin' down the street....")

    A       F#m      Bm7       E
E----------------------------2-------------|
B----------------------------------7h9-----|
G--------------------------4---------------|
D-----------------------24-----------------|
A------------------------------------------|
E------------------------------------------|


    A       F#m      Bm7       E
E-------5--7-9\7---------5-----4-2-0-------|
B------------------------------------------|
G------------------------------------------|
D------------------------------------------|
A------------------------------------------|
E------------------------------------------|

Second Chorus ("Cause the boys in the hood...")

    A       F#m      Bm7       E
E----------------------------2-------------|
B----------------------------------7h9-----|
G--------------------------4---------------|
D-----------------------24-----------------|
A------------------------------------------|
E------------------------------------------|


    A       F#m      Bm7       E
E-------5--7-9\7-------------------------------------------------|
B---------------------7---7----5-7-5-3-2-------3-------2---------|
G------------------------------6-7-6-4-2-------3-------2-----13--|
D--------------------------------------2---2/4-0---4\2-2---2/----|
A-----------------------9---9------------------------------------|
E----------------------------------------------------------------|

Third Chorus ("Cause the boys in the hood...")
() = quieted

    A       F#m      Bm7       E
E----------------------------2-------------|
B-------------------------------(9-7\5)----|
G--------------------------4---------------|
D-----------------------24-----------------|
A------------------------------------------|
E------------------------------------------|


    A       F#m      Bm7       E
E----12-12-12----------------2-------------------------------|
B-----10-10-10-----------------5-7-5-3-2--2--3--3--2---------|
G--------------------------4---6-7-6-4-2--2--2--2--2---------|
D-----------------------24-------------2--2--0--0--2---------|
A------------------------------------------------------------|
E-----------------------------------------------------2'-0---|

Outro: (play instead of the last measure of the main part)

       slow down
E-----------0h2-0--------|
B-------3---------3------|
G-----2---2-----------2--|
D---0--------------------|
A------------------------|
E------------------------|

By:Louis Estrada Infamous Cru



************************************

| \  Slide down
| /  Slide up
| h  Hammer-on

************************************
Suggest correction
comments
print report bad tab
6 comments total. Showing first comments.
0 reply
wildwildabeast 10 May 28, 2005 12:00 AM

nice tab

0 reply
wildwildabeast 10 May 28, 2005 12:00 AM

nice tab

0 reply
wildwildabeast 10 May 28, 2005 12:00 AM

nice tab

guest
You may want to rate the tab now too:
select rating
Wanna post a correction for this tab? Suggest correction