Oops, an error
Loading. Please wait.

Pollyanna Tab

280 views 9 this week
no commentswrite comment
1 2 3 4 5
x 3
add to favorites
launch autoscroll
font size
0
reset
how to read this tab
guitar tuner
Autoscroll
slow
fast
+/-
esc
set tempo
stop
Help us to improve Ultimate-Guitar.com Take our survey!
×
Author
Difficulty
Tuning
intermediate
D A D G B E
Pollyanna

Tabbed by Modnarandom

Tuning: Drop D

Please comment any corrections below

Intro

Bass Only

e|----------------------------------------------------------------|
B|----------------------------------------------------------------|
G|----------------------------------------------------------------|
D|-----5---------------1------------------------------------------|
A|-----------3-4-5------------------------------------------------|
D|-5-----5-5-------1-----1-1-1-2-3--------------------------------|x2

Guitar 1

e|----------------------------------------------------------------|
B|----------------------------------------------------------------|
G|----------------------------------------------------------------|
D|-----5---------------1------------------------------------------|
A|-----------3-4-5------------------------------------------------|
D|-5-----5-5-------1-----1-1-1-2-3--------------------------------|x2

Guitar 2

e|--4b--3b----------4b--3b---------4b~--------------4b--3b----------|
B|----------5b--4b----------5b--4b--------------------------5b--4b--|
G|------------------------------------------------------------------|
D|------------------------------------------------------------------|
A|------------------------------------------------------------------|
E|------------------------------------------------------------------|

Verse 1

Guitar 1 Only

e|----------------------------------------------------------------|
B|----------------------------------------------------------------|
G|----------------------------------------------------------------|
D|--5---5-xx8-8---12--12--12-xx10-xx8-xx--------------------------|
A|--5---5-xx8-8---12--12--12-xx10-xx8-xx--------------------------|
E|--5---5-xx8-8---12--12--12-xx10-xx8-xx--------------------------|

e|----------------------------------------------------------------|
B|----------------------------------------------------------------|
G|---------------------------xx-----------------------------------|
D|--5---5-xx8-8---12--12--12-xx-----------------------------------|
A|--5---5-xx8-8---12--12--12-xx-----------------------------------|
E|--5---5-xx8-8---12--12--12-xx3-5-3-5----------------------------|

e|----------------------------------------------------------------|
B|----------------------------------------------------------------|
G|----------------------------------------------------------------|
D|-----5---------------1------------------------------------------|
A|-----------3-4-5------------------------------------------------|
D|-5-----5-5-------1-----1-1-1-2-3--------------------------------|x2

All x2

Prechorus

e|----------------------------------------------------------------|
B|----------------------------------------------------------------|
G|----------------------------------------------------------------|
D|--12------------------------------------------------------------|
A|--12--(x16)-----------------------------------------------------|
D|--12------------------------------------------------------------|

Chorus

Guitar 1

e|----------------------------------------------------------------|
B|----------------------------------------------------------------|
G|----------------------------------------------------------------|
D|--8-8--8-8--5-5-5---0-0--0-0--3-3-3-----------------------------|
A|--8-8--8-8--5-5-5---0-0--0-0--3-3-3-----------------------------|
D|--8-8--8-8--5-5-5---0-0--0-0--3-3-3-----------------------------|x4

Guitar 2

e|--------------------8-------------------------------------------|
B|---------------10-8---------------------------------------------|
G|--12-10------12--------12-10------------------------------------|
D|--------12-------------------12--12-10-8----10------------------|
A|-----------------------------------------10---------------------|
D|----------------------------------------------------------------|x2

Postchorus

Guitar 1 Only

e|----------------------------------------------------------------|
B|----------------------------------------------------------------|
G|----------------------------------------------------------------|
D|-----5---------------1------------------------------------------|
A|-----------3-4-5------------------------------------------------|
D|-5-----5-5-------1-----1-1-1-2-3--------------------------------|x2

Verse 2

Guitar 1 Only

e|----------------------------------------------------------------|
B|----------------------------------------------------------------|
G|----------------------------------------------------------------|
D|--5~------------------------------------------------------------|
A|--5~------------------------------------------------------------|
D|--5~------------------------------------------------------------|

e|----------------------------------------------------------------|
B|----------------------------------------------------------------|
G|----------------------------------------------------------------|
D|-----5---------------1------------------------------------------|
A|-----------3-4-5------------------------------------------------|
D|-5-----5-5-------1-----1-1-1-2-3--------------------------------|x4

Chorus

Guitar 1

e|----------------------------------------------------------------|
B|----------------------------------------------------------------|
G|----------------------------------------------------------------|
D|--8-8--8-8--5-5-5---0-0--0-0--3-3-3-----------------------------|
A|--8-8--8-8--5-5-5---0-0--0-0--3-3-3-----------------------------|
D|--8-8--8-8--5-5-5---0-0--0-0--3-3-3-----------------------------|x4

Guitar 2

e|--------------------8-------------------------------------------|
B|---------------10-8---------------------------------------------|
G|--12-10------12--------12-10------------------------------------|
D|--------12-------------------12--12-10-8----10------------------|
A|-----------------------------------------10---------------------|
D|----------------------------------------------------------------|x2

Bridge

Guitar 1

e|----------------------------------------------------------------|
B|----------------------------------------------------------------|
G|----------------------------------------------------------------|
D|----------------------------------------------------------------|
A|----------------------------------------------------------------|
D|--8-8-8-8-5-5-5-5-0-0-0-0-0-0-0-0-0-----------------------------|x4

Guitar 2

e|----------------------------------------------------------------|
B|----------------------------------------------------------------|
G|----------5-5-7-7---------3-3-5-5----------7-5------------------|
D|---------------------------------------7------------------------|
A|--5-5-5-5---------3-3-3-3---------------------------------------|
D|----------------------------------------------------------------|x4

Outro

Guitar 1

e|----------------------------------------------------------------|
B|----------------------------------------------------------------|
G|----------------------------------------------------------------|
D|-----5---------------1------------------------------------------|
A|-----------3-4-5------------------------------------------------|
D|-5-----5-5-------1-----1-1-1-2-3--------------------------------|x2


Guitar 2

e|--4b--3b----------4b--3b---------4b~--------------4b--3b----------|
B|----------5b--4b----------5b--4b--------------------------5b--4b--|
G|------------------------------------------------------------------|
D|------------------------------------------------------------------|
A|------------------------------------------------------------------|
E|------------------------------------------------------------------|

End

e|----------------------------------------------------------------|
B|----------------------------------------------------------------|
G|----------------------------------------------------------------|
D|--5-------------------------------------------------------------|
A|--5-------------------------------------------------------------|
D|--5-------------------------------------------------------------|




Suggest correction
Give kudos to tab author, rate the tab!
1 2 3 4 5
comments
print report bad tab
guest
You may want to rate the tab now too:
select rating
Wanna post a correction for this tab? Suggest correction