Oops, an error
Loading. Please wait.

List Do M Tab

version 1
version 1

Solo

Interactive

6,177 views 12 this week
no commentswrite comment
1 2 3 4 5
please rate
add to favorites
launch autoscroll
font size
0
reset
how to read this tab
guitar tuner
Autoscroll
slow
fast
+/-
esc
set tempo
stop
Help us to improve Ultimate-Guitar.com Take our survey!
×
Difficulty
intermediate
SOLO nr 3, do momentu wyciszenia.
generated by GuitarPro


      S  S  S  S  Q      Q      Q         S  S     S  S  S  S  S  S   Q     
E||-----------------------------------|------------------------------------|
B||-----------13-13b----13b----13b----|---L-13pbr-13-12-10-12-13-10S-12----|
G||--------14-------------------------|------------------------------------|
D||---x-14----------------------------|------------------------------------|
A||-----------------------------------|------------------------------------|
E||-----------------------------------|------------------------------------|


   Q      E   E   E  E   E  E      E   E   E  E   E   E  E   E    
-------------------------------|---------------------------------|
--12b----12--10----------------|--13--12--10---------------------|
-----------------12--9--12--9--|--------------9--12--10--9-------|
-------------------------------|----------------------------10h--|
-------------------------------|---------------------------------|
-------------------------------|---------------------------------|


   E    E  E   E   E  E   E   E      E   E   E  E   E   E   H            E   
---------------------------------|------------------------------------|-----|
---------------------------------|---------------------10--12b--------|--L--|
-----------9--12--10--9----------|--------------9--12-----------------|-----|
--12p--10----------------12--10--|------10--12------------------------|-----|
---------------------------------|--12--------------------------------|-----|
---------------------------------|------------------------------------|-----|


   E   E   
----------|
--10------|
------12--|
----------|
----------|
----------|


       W                                                                
   E   Q     Q     Q    Q     Q     Q     Q     Q     Q     Q     Q     
-----------------------------------------------------------------------|
--10--10----10---------------------------------------------------------|
------------------12----9----------------------------------------------|
-----------------------------12----10----------12----10----------10----|
-----------------------------------------12----------------12----------|
-----------------------------------------------------------------------|


   Q     Q    Q     Q        Q     Q     Q     Q        Q     Q      Q       
-------------------------|--------------------------|-----------------------|
-------------------13----|--------------15----13----|--15----15b----15pb----|
--/9----12----9----------|--14----17----------------|-----------------------|
-------------------------|--------------------------|-----------------------|
-------------------------|--------------------------|-----------------------|
-------------------------|--------------------------|-----------------------|


   Q        Q     Q     Q         Q      Q        Q     Q      
------------------------------|-------------------------------|
--15pbr----13----------15b----|--15b----15pbr----13----15b----|
-----------------14-----------|-------------------------------|
------------------------------|-------------------------------|
------------------------------|-------------------------------|
------------------------------|-------------------------------|


   Q     Q     Q     Q         Q        Q     Q     Q      
---------------------------|------------------------------|
--15----13----15----15b----|--15pbr----13----------15h----|
---------------------------|-----------------14-----------|
---------------------------|------------------------------|
---------------------------|------------------------------|
---------------------------|------------------------------|


   Q     Q     Q     Q        Q      Q      Q     Q     
--------15----17----19----|--19b----19b----17----15----|
--17----------------------|----------------------------|
--------------------------|----------------------------|
--------------------------|----------------------------|
--------------------------|----------------------------|
--------------------------|----------------------------|


   Q      Q      Q     Q        Q     Q     Q      Q        Q     Q     
--17h----19p----17----15----|--17----19----20p----19----|--17----15----|
----------------------------|---------------------------|--------------|
----------------------------|---------------------------|--------------|
----------------------------|---------------------------|--------------|
----------------------------|---------------------------|--------------|
----------------------------|---------------------------|--------------|


   Q      Q      Q     Q      
--17h----19p----17----15----||
----------------------------||
----------------------------||
----------------------------||
----------------------------||
----------------------------||




Duration Legend
---------------
W - whole
H - half
Q - quarter
E - 8th
S - 16th
T - 32nd
X - 64th
. - note dotted
|-n-|  - n-tuplets


Tablature Legend
----------------
L - tied note
x - dead note
g - grace note
(n) - ghost note
> - accentuded note
NH - natural harmonic
AH - artificial harmonic
TH - tapped harmonic
SH - semi harmonic
PH - pitch harmonic
h - hammer on
p - pull off
b - bend
br - bendRelease
pb - preBend
pbr - preBendRelease
brb - bendReleaseBend
\n/ - tremolo bar dip
\n - tremolo bar dive
-/n - tremolo bar Release up
/n\ - tremolo bar inverted dip
/n - tremolo bar return
-\n - tremolo bar Release down
S - shift slide
s - legato slide
/ -  slide into from below or out of upwards
\ -  slide into from above or out of downwards
~ - vibrato
W - wide vibrato
tr - trill
TP - tremolo picking
T - tapping
S - slap
P - pop
< - fade in
^ - brush up
v - brush down
Suggest correction
Give kudos to tab author, rate the tab!
1 2 3 4 5
comments
print report bad tab
guest
You may want to rate the tab now too:
select rating
Please do not post tabs as comments. Select "correction" instead!