Oops, an error
Loading. Please wait.

Poznalem Go Po Czarnym Kapeluszu Tab

3,263 views 1 this week
no commentswrite comment
1 2 3 4 5
please rate
add to favorites
launch autoscroll
font size
0
reset
how to read this tab
guitar tuner
Tab Pro tools
  • play this tab
  • loop segment
  • change instrument
  • show fretboard
  • metronome
×
Best way to learn
"Poznalem Go Po Czarnym Kapeluszu"
Autoscroll
slow
fast
+/-
esc
set tempo
stop
Contributor
                       Poznałem go po czarnym kapeluszu                         


                                                                            Dżem
Adaś Otręba




     E  E  E  E  E   E   E  E     E  E  E  E  E   E   E  E   
E||----------------------------|----------------------------|
B||----------------------------|----------------------------|
G||----------------------------|----------------------------|
D||-----2--4--2--4b--4b-----2--|-----2--4--2--4b--4b-----2--|
A||-----0--0--0--0---0------0--|-----0--0--0--0---0------0--|
E||----------------------------|----------------------------|


  E  E  E  E  E   E  E  E     E   E  E  E  E  E  S S E      Q    Q     
---------------------------|-----------------------------|------------|
---------------------------|-----------------------------|------------|
---------------------------|-----------------------------|------------|
-----2--4--2--4b--2--4--2--|--4b--2--4--2------------2~--|--L---------|
-----0--0--0--0---0--0--0--|--0---0--0--0-----2----------|------------|
---------------------------|------------------0--3-4-----|------------|


  E  E  E  E  E  E  E  E     E  E  E  E  E  E    E  E   
--------------------------|----------------------------|
--------------------------|----------------------------|
--------------------------|----------------------------|
--2--2--4-----2--2-----2--|-----2--------2--2--2g4--2--|
--0--0--0-----0--0-----0--|-----0--3--4--0--0----0--0--|
--------------------------|----------------------------|


  E  E  E  E  E  E  E  E     E  E  S S Q     E  S S E   
--------------------------|----------------------------|
--------------------------|----------------------------|
--------------------------|----------------------------|
--2--2--4-----2--2-----2--|------------2~-----------0--|
--0--0--0-----0--0-----0--|--2--2------------2------0--|
--------------------------|--0--0--3-4-------0--3-4----|


  E  E  E  E  E  E  E  E     E  E  E  E  E  E  E  E   
--------------------------|--------------------------|
--------------------------|--------------------------|
--2--2--4-----2--2-----2--|--------------------------|
--0--0--0-----0--0-----0--|--2--2--4-----5--4-----2--|
--------------------------|--0--0--0-----0--0-----0--|
--------------------------|--------------------------|


  E  E  E  E  E  E  E  E       E  E  E  Q    E    E  E   
--------------------------||----------------------------|
--------------------------||----------------------------|
--------------------------||*-----------2---------------|
--------------------------||*--2--------2----2--2g4--2--|
--2--2--------2--2--4--2--||---0--3--4--0---------------|
--0--0--3--4--0--0-----0--||----------------------------|


  E  E  E  E  E  E  E  E     E  E  E  E  E  E    E  E   
--------------------------|----------------------------|
--------------------------|----------------------------|
--------------------------|----------------------------|
--2--2--4-----2--2-----2--|-----2--------2--2--2g4--2--|
--0--0--0-----0--0-----0--|-----0--3--4--0--0----0--0--|
--------------------------|----------------------------|


  E  E  E  E  E  E  E  E     E  E  S S Q     E  S S E   
--------------------------|----------------------------|
--------------------------|----------------------------|
--------------------------|----------------------------|
--2--2--4-----2--2-----2--|------------2~-----------0--|
--0--0--0-----0--0-----0--|--2--2------------2------0--|
--------------------------|--0--0--3-4-------0--3-4----|


  E  E  E  E  E  E  E  E     E  E  E  E  E  E  E  E   
--------------------------|--------------------------|
--------------------------|--------------------------|
--2--2--4-----2--2-----2--|--------------------------|
--0--0--0-----0--0-----0--|--2--2--4-----5--4-----2--|
--------------------------|--0--0--0-----0--0-----0--|
--------------------------|--------------------------|


  E  E  E  E  E  E  E  E       Q     E  E  E  E  E  E   
---------------------------||--------------------------|
---------------------------||--------------------------|
-----------------------2--*||--2~----2-----2--2-----2--|
-----------------------0--*||--0-----0-----0--0-----0--|
--2--2--------2--2--4------||--------------------------|
--0--0--3--4--0--0---------||--------------------------|


  E  E  E  E  E  E    E  E     E  E  E  E  E  Q    E   
----------------------------|--3--3-----3--3-------3--|
--------------3--3--3g5--3--|--3--3-----3--3-------3--|
-----2--------2--2----2--2--|--4--4-----4--4----------|
-----0--3--4--0----------0--|-------------------------|
----------------------------|-------------------------|
----------------------------|-------------------------|


  E  E  E  E  E  Q    E     E  E  E  E  E  E  E  E     E  E  E  E  E  E  Q      
--3--3-----3--3-------3--|--3--3-----3--3-----3--3--|--------------------------|
--3--3-----3--3-------3--|--3--3-----3--3-----3--3--|--3--3--1--3-----3--3\----|
--4--4-----4--4----------|--4--4-----4--4-----------|--2--2--2--2-----2--2\----|
-------------------------|--------------------------|--0--0--0--0-----0--0-----|
-------------------------|--------------------------|--------------------------|
-------------------------|--------------------------|--------------------------|


  E  E  E  E  E  E  E  E      E  E  E  E  E  E  Q     
---------------------------|-------------------------|
---------------------------|-------------------------|
--5--5-----5--5-----5--3b--|-------------------------|
--5--5-----5--5-----5--3---|--5--5-----5--5-----5----|
--3--3-----3--3-----3--3---|--5--5-----5--5-----3----|
---------------------------|--3--3-----3--3-----3----|


    E  E  E  E  E  E    E  E     E  E  E  E  E  E  Q     
------------------------------|-------------------------|
----------------3--3----3--3--|-------------------------|
--0g2--2--------2--2--2g4--2--|-------------------------|
----0--0--3--4--0----------0--|-----5-----5-----5--5----|
------------------------------|-----5-----5-----5--5----|
------------------------------|-----3-----3-----3--3----|


  E  E  E  E  E  Q    E     E  E  E  E  E  Q    E     E  E  E  E  E  E  E  E   
--3--3-----3--3-------3--|--3--3-----3--3-------3--|--3--3-----3--3-----3--3--|
--3--3-----3--3-------3--|--3--3-----3--3-------3--|--3--3-----3--3-----3--3--|
--4--4-----4--4----------|--4--4-----4--4----------|--4--4-----4--4-----------|
-------------------------|-------------------------|--------------------------|
-------------------------|-------------------------|--------------------------|
-------------------------|-------------------------|--------------------------|


  E  E  E  E  E  E  Q        E  E  E  E  E  E  E  E    
--------------------------|---------------------------|
--3--3--1--3-----3--3\----|---------------------------|
--2--2--2--2-----2--2\----|--5--5-----5--5-----5--3b--|
--0--0--0--0-----0--0-----|--5--5-----5--5-----5--3---|
--------------------------|--3--3-----3--3-----3--3---|
--------------------------|---------------------------|


  E  E  E  E  E  E  Q         E  E  E  E  E  E    E  E      E  H        Q.      
-------------------------|-------------------------------|---------------------|
-------------------------|----------------3--3----3------|---------------------|
-------------------------|--0g2--2--------2--2--2g4------|---------------------|
--5--5-----5--5-----5----|----0--0--3--4--0----------5\--|--L------------------|
--5--5-----5--5-----3----|---------------------------3\--|--L------------------|
--3--3-----3--3-----3----|---------------------------3\--|--L------------------|


  solo                                                      
  E    E  S S E  Q      Q       E  E  Q     E  E  E     E   
------------------------8----|--L--L--8--------8--L--------|
--------------6--8br----L----|--L--L--8b----------8pbr--6--|
-------5--5-7----------------|--------------------------5--|
-----------------------------|-----------------------------|
-----------------------------|-----------------------------|
-----------------------------|-----------------------------|


  E  S S S S  S   S  S   S   E   E   E     E     Q     E    E    Q       E   
--------------------10~-10~-------------|--8pbr--------8----8----8----------|
--L------6-------10---------13--13b-----|--------8b----8pb--8pb--8pbr----L--|
--L--5-7-----12b------------------------|-----------------------------------|
----------------------------------------|-----------------------------------|
----------------------------------------|-----------------------------------|
----------------------------------------|-----------------------------------|


  sorry że tylko tyle, ale dalej jest za trudne ;-]                      
  Q                                                 E  E  E  E  S  S E   
--8------------------------------------------------------------------8--|
--8br-----------------------------------------------6--8-----8--8-10----|
------------------------------------------------------------------------|
------------------------------------------------------------------------|
------------------------------------------------------------------------|
------------------------------------------------------------------------|


   E   S S  S S E   E  E   Q                                               
--10--10-8----------8------8----|-----|-----|-----|-----|-----|-----|-----|
-----------10-8-8b--L--8b-------|-----|-----|-----|-----|-----|-----|-----|
--------------------------------|-----|-----|-----|-----|-----|-----|-----|
--------------------------------|-----|-----|-----|-----|-----|-----|-----|
--------------------------------|-----|-----|-----|-----|-----|-----|-----|
--------------------------------|-----|-----|-----|-----|-----|-----|-----|


-----|-----|-----||
-----|-----|-----||
-----|-----|-----||
-----|-----|-----||
-----|-----|-----||
-----|-----|-----||




Duration Legend
---------------
W - whole
H - half
Q - quarter
E - 8th
S - 16th
T - 32nd
X - 64th
. - note dotted
|-n-|  - n-tuplets


Tablature Legend
----------------
L - tied note
x - dead note
g - grace note
(n) - ghost note
> - accentuded note
NH - natural harmonic
AH - artificial harmonic
TH - tapped harmonic
SH - semi harmonic
PH - pitch harmonic
h - hammer on
p - pull off
b - bend
br - bendRelease
pb - preBend
pbr - preBendRelease
brb - bendReleaseBend
\n/ - tremolo bar dip
\n - tremolo bar dive
-/n - tremolo bar Release up
/n\ - tremolo bar inverted dip
/n - tremolo bar return
-\n - tremolo bar Release down
S - shift slide
s - legato slide
/ -  slide into from below or out of upwards
\ -  slide into from above or out of downwards
~ - vibrato
W - wide vibrato
tr - trill
TP - tremolo picking
T - tapping
S - slap
P - pop
< - fade in
^ - brush up
v - brush down



Gandalf_90
comments
We did not receive enough feedback on this tab! Please rate:
print report bad tab
1 2 3 4 5
I want to post or [tab]
guest
You may want to rate the tab now too:
select rating
Please do not post tabs as comments. Select "correction" instead!