Oops, an error
Loading. Please wait.

Whisky Tab

version 1
version 1

Solo

Whole song

1,514 views 1 this week
no commentswrite comment
1 2 3 4 5
please rate
add to favorites
launch autoscroll
font size
0
reset
how to read this tab
guitar tuner
Tab Pro tools
  • play this tab
  • loop segment
  • change instrument
  • show fretboard
  • metronome
×
Best way to learn
"Whisky"
Autoscroll
slow
fast
+/-
esc
set tempo
stop
Contributor
Difficulty
intermediate
---------------------------------------------------------------------------------------
                       Dzem - "Whisky"
---------------------------------------------------------------------------------------
tabbed by: wojtekk83
e-mail: wojtekk83@gmail.com

tuning: standard

YouTube: 
http://www.youtube.com/watch?v=sENjVPRFMww&feature=plcp

This is a solo from '93 Rawa Blues concert..
I had great fun transcribing it.. enjoy :)
---------------------------------------------------------------------------------------

Chord progression underneath the solo:

F C G G x7
F C G Cadd9 G Cadd9 ---> back to the chorus of the song


------------------8p7-------------------------------------------10-7-8p7-8h10-7-------|
-----8-8----8h10~-----8--8----------------------------------8-------------------8~~---|
--/9-----9-----------------7h9-7~~--5p4-5p4---------------7---7-----------------------|
---------------------------------------------5-5~0-5-7s9------------------------------|
--------------------------------------------------------------------------------------|
--------------------------------------------------------------------------------------|

-------12s15~-15-12h15p12--------------------------------------10s12-----15b17-15b17--|
--8s15--------------------12h13~12h13p12-----------------------------12~~-------------|
-----------------------------------------14-14p12--------12---------------------------|
---------------------------------------------------14p12----14------------------------|
--------------------------------------------------------------------------------------|
--------------------------------------------------------------------------------------|

--15-12-15~-12h13p12------------------------------------------------------------------|
---------------------12--13p12-------12--------------------12-12h13-12~~-s10-8h10p8---|
-------------------------------14p12----12-12-12-12~~12h14----------------------------|
--------------------------------------------------------------------------------------|
--------------------------------------------------------------------------------------|
--------------------------------------------------------------------------------------|

-------10-------------------------------------------------------------------15--15p12-|
---8------11b12--12--12h13p12----12----------------------12-15-15s17--15h17-----------|
-9---9------------------------14----12-------------12h14------------------------------|
---------------------------------------12s10s9--12------------------------------------|
--------------------------------------------------------------------------------------|
--------------------------------------------------------------------------------------|

--------------------------------------------------------------------------------------|
--15p12--13p12--------------------15b17r15--------------------15p12-------------------|
---------------14p12-14p12-12-12~----------14-14-12~-------12-------14p12-14b16-12~---|
-----------------------------------------------------12h14----------------------------|
--------------------------------------------------------------------------------------|
--------------------------------------------------------------------------------------|

--------------------------------10-----------10---------------------------------------|
-12h13-13p12--12p10-10p8--10b12----12r10-8---10b12-8h10p8--10b12r10-8-10p8---8--8h10--|
---------------------------------------------------------------------------9----------|
--------------------------------------------------------------------------------------|
--------------------------------------------------------------------------------------|
--------------------------------------------------------------------------------------|

--------------------------------------------------------------------------------------|
--8-----------------------------------------------------------------------------------|
----7h9-7-----------------------------------------------------------------------------|
----------9-7p5-----5~~---------------------------------------------------------------|
----------------7p5-------------------------------------------------------------------|
--------------------------------------------------------------------------------------|

---------------------------------------------------------------------------------------
rate, comment & enjoy :)
comments
We did not receive enough feedback on this tab! Please rate:
print report bad tab
1 2 3 4 5
I want to post or [tab]
guest
You may want to rate the tab now too:
select rating
Please do not post tabs as comments. Select "correction" instead!