Oops, an error
Loading. Please wait.

Whisky Tab

version 2
version 2

Whole song

6,927 views 12 this week
no commentswrite comment
1 2 3 4 5
please rate
add to favorites
launch autoscroll
font size
0
reset
how to read this tab
guitar tuner
Autoscroll
slow
fast
+/-
esc
set tempo
stop
Help us to improve Ultimate-Guitar.com Take our survey!
×
Author
Whisky
Dzem /R. Riedel/

Albums:
The Singles;
Single Tonpress;
Cegla;
Wehikul czasu - Spodek '92;
Akustycznie - suplement;

----
Intro:
-||--3---3----3---3----3-------3------||
-||--3----3---3----3---3--------3-----||
-||--2-----2--0-----0--0---------0----||
-||--3------0-2------0-0------0---0---||
-||-----------3--------2-----2--------||
-||--------------------3----3---------||

-||--3---3----3---3----||
-||--3----3---3----3---||
-||--2-----2--0-----0--||
-||--3------0-2------0-||
-||-----------3--------||
-||--------------------||

Teraz zaczynamy grac nastepujace chwyty (na zmiane, bicie dopasujcie do piosenki):

--- Przerobione G  ---
E-3-
H-3-
G-0-
D-0-
A-2-
E-3-

--- Przerobione C9  ---
E-3-
H-3-
G-0-
D-2-
A-3-
E-0-

To jest przez nastepujaca czesc zwrotki:
Mowia o mnie w miescie, co z niego za typ.
Wciaz chodzi pijany, pewno nie wie co to wstyd.

Dalej:
D (najproscie bic rytmicznie w dol - wedlug piosenki, dokladamy palec jak ponizej co 
uderzenie od momentu, w ktorym dalem znak "|")

--- D z dolozonym palcem  ---
E-3-
H-3-
G-2-
D-0-
A-0-
E-0-

Gramy to, gdy spiewamy:
Brudny niedo|mytek,
w stajni ciągle |spi.

Nastepnie:

   Cze-go szu-ka w na-szym mies-cie,
-||----------------------------------||
-||-----------1-------3---------1----||
-||----------------------------------||  Przejście 1x D, 1x D z dolozeniem
-||----------------------------------||  Bicie w dol
-||-------3--------2-------0---------||  Wtedy spiewamy "Idz do diabla"
-||----------------------------------||

...       dia-bla  mo-wia  lu - dzie
-||----------------------------------||
-||-----------1-------3---------1----||
-||----------------------------------||  Przejście 1x D, 1x D z dolozeniem
-||----------------------------------||  Bicie w dol
-||-------3--------2-------0---------||
-||----------------------------------||

Przejscie do nastepnej zwrotki:
(Wtedy gdy spiewamy:
Pelni cnot, ludzie pelni cnot)

Gramy tak samo jak poczatek zwrotki.

Po 3 zwrotce i przed Refrenem:

-||--3---3----3---3----3-------3------||
-||--3----3---3----3---3--------3-----||
-||--2-----2--0-----0--0---------0----||
-||--3------0-2------0-0------0---0---|| x 3
-||-----------3--------2-----2--------||
-||--------------------3----3---------||

-||--3---3----3---3----||
-||--3----3---3----3---||
-||--2-----2--0-----0--||
-||--3------0-2------0-||
-||-----------3--------||
-||--------------------||

I zaczynamy grac jak kazda zwrotke, konczac od razu po slowach:
To samotnym byc, niee.

Przerywamy gre na 3 sekundy.

Teraz gramy:

-||--3---3----3---3----3-------3------||
-||--3----3---3----3---3--------3-----||
-||--2-----2--0-----0--0---------0----||
-||--3------0-2------0-0------0---0---|| x 3
-||-----------3--------2-----2--------||
-||--------------------3----3---------||

-||--3---3----3---3----||
-||--3----3---3----3---||
-||--2-----2--0-----0--||
-||--3------0-2------0-||
-||-----------3--------||
-||--------------------||

Teraz gramy jak na poczatku kazdej zwrotki (przerobione G i C9) stopniowo zwalniajac, 
nie za dlugo xdd

To tyle. Jezeli masz jakiekolwiek problemy, sluze pomoca:
GG: 1503453
email: maclaw@maclaw.pl

Taby w pelni ulozone przeze mnie.
by Maclaw.pl
Suggest correction
Give kudos to tab author, rate the tab!
1 2 3 4 5
comments
print report bad tab
guest
You may want to rate the tab now too:
select rating
Please do not post tabs as comments. Select "correction" instead!