Oops, an error
Loading. Please wait.

Save Tonight Bass Tab

version 1
version 1

Whole song

27,420 views 39 this week
3 commentsread comments
1 2 3 4 5
worth learning
x 12
add to favorites
launch autoscroll
font size
0
reset
guitar tuner
Tab Pro tools
  • play this tab
  • loop segment
  • change instrument
  • show fretboard
  • metronome
×
Best way to learn
"Save Tonight"
Autoscroll
slow
fast
+/-
esc
set tempo
stop
  BTAB: Save Tonight 
Artist: Eagle Eye Cherry
 Album: Unknown
Author: Rattman (jratt0@hotmail.com)

**Padrino's Bass Tab Exclusive!**

If you know this songs real name let me know.

Verse:
G---------------------------------
D---------------------------------
A-0-0-0-0---------3-3-3-3---------
E---------1-1-1-1---------3-3-3-3-

Chorus:
G-------------------------
D-------------------------
A-0-0-0-0---------3-3-5-3-
E---------1-1-1-1---------

Taken from Padrino's Bass Tab Archive: http://members.xoom.com/jszalma/

comments
print report bad tab
3 comments total.
+2 reply
flea(Dea) wrote on July 17 2002, 12:00 am

Its ok to play the chorus like Rattman did but i play it like this!!

G-------------------------
D---------------2p5-------
A---4p7----03-33-------2p5
E-55----11----------33----

0 reply
AsteriX018 wrote on January 10 2006, 07:53 am

The title of the song is "Save Tonight" 8-)

0 reply
AlexMu wrote on November 8 2006, 03:35 pm

it'S really short

I want to post or [tab]
guest
You may want to rate the tab now too:
select rating
Please do not post tabs as comments. Select "correction" instead!