Oops, an error
Loading. Please wait.

After The Thrill Is Gone Bass Tab

version 1
version 1

Whole song

Interactive

1,429 views 3 this week
no commentswrite comment
1 2 3 4 5
please rate
add to favorites
launch autoscroll
font size
0
reset
guitar tuner
Tab Pro tools
  • play this tab
  • loop segment
  • change instrument
  • show fretboard
  • metronome
Autoscroll
slow
fast
+/-
esc
set tempo
stop
Contributor
-----------------------------------------------------------------------------
	               After the Thrill Is gone - The Eagles (BASS)
                       
-----------------------------------------------------------------------------
Tabbed by: Scotto10

Tuning: Standard

=============================================================================

Bass



     H.            Q        W                   H.            Q      
G||----------------------|-------------------|----------------------|
D||----------------------|-------------------|----------------------|
A||----------------------|-------------------|--3-------------------|
E||---------------10\----|--3----------------|---------------10\----|


  W                   W                   W                   W                 
-------------------|-------------------|-------------------|-------------------|
-------------------|-------------------|-------------------|-------------------|
-------------------|--3----------------|-------------------|-------------------|
--3----------------|-------------------|--5----------------|--3----------------|


  W                   H.            Q        W                 
-------------------|----------------------|-------------------|
-------------------|----------------------|-------------------|
-------------------|----------------------|-------------------|
--5----------------|--3------------10\----|--3----------------|


  H.           E  E     W                   H        Q    Q     
---------------------|-------------------|---------------------|
---------------------|-------------------|---------------------|
--3------------5--3--|-------------------|--3--------3----2----|
---------------------|--3----------------|---------------------|


  W                   W                   W                 
-------------------|-------------------|-------------------|
-------------------|-------------------|-------------------|
--0----------------|-------------------|-------------------|
-------------------|--3----------------|--5----------------|


  H.           E  E      H        E  E  E  E     H        E  E  E  E   
----------------------|-----------------------|-----------------------|
----------------------|-----------------------|-----------------------|
---------------5------|--------------------2--|--3--------L-----------|
--3---------------5\--|--3--------L--5--------|--------------0-----2--|


  H        E  E  E  E     H.           E  E     H        E  E  E  E   
-----------------------|---------------------|-----------------------|
-----------------------|---------------------|-----------------------|
--------------------2--|--3------------L-----|-----------------------|
--3--------L--5--------|------------------3--|--5--------L--0-----2--|


  H        E  E  E  E     H        E  E  E  E     H        E  E  E  E   
-----------------------|-----------------------|-----------------------|
-----------------------|-----------------------|-----------------------|
-----------------------|-----------------------|-----------------------|
--3--------L--0-----2--|--5--------L--0-----2--|--3--------L--0-----2--|


  H        E  E  E  E     H.           Q       Q    S E  S E  E  Q     
-----------------------|--------------------|-------------------------|
-----------------------|--------------------|-------------------------|
-----------------------|--------------------|--------------7--7-------|
--5--------L--0-----2--|--3------------2----|--0----0----0------------|


  Q.     S S E.  S E  E     Q    Q    Q    Q       Q.     E  Q    Q     
-------------------------|----------------------|----------------------|
-------------------------|----------------------|----------------------|
--2------L---2-----2-----|-----------------5----|----------------------|
-----------2-----2----2--|--5----3----0---------|--3---------3----2----|


  Q    S E  S E  Q    E     Q.     S S E  S S E  E   
-------------------------|--------------------------|
-------------------------|--------------------------|
--------------7--7-------|--2------L---2--2---------|
--0----0----0------------|-----------2------2----2--|


  Q.     S S S S S S E  E       H.           Q        H        E  E  E  E   
---------------------------|-----------------------|-----------------------|
---------------------------|-----------------------|-----------------------|
--3----------3---3---3-----|--2g5------------------|--------------------2--|
-----------3---3---3----3--|-----------------8\----|--3--------L--5--------|


  H        E  E  E  E     H        E  E  E  E     H.           E  E   
-----------------------|-----------------------|---------------------|
-----------------------|-----------------------|---------------------|
--3--------L-----------|--------------------2--|--3------------L-----|
--------------0-----2--|--3--------L--5--------|------------------3--|


  H        E  E  E  E     H        E  E  E  E     H        E  E  E  E   
-----------------------|-----------------------|-----------------------|
-----------------------|-----------------------|-----------------------|
-----------------------|-----------------------|-----------------------|
--5--------L--0-----2--|--3--------L--0-----2--|--5--------L--0-----2--|


  H        Q    Q        H        E  E  E  E     H        E  E  E  E   
----------------------|-----------------------|-----------------------|
----------------------|-----------------------|-----------------------|
----------------------|--------------------2--|--3--------L-----------|
--3--------L----8\----|--3--------L--5--------|--------------0-----2--|


  H        E  E  E  E     H.           E  E     H        E  E  E  E   
-----------------------|---------------------|-----------------------|
-----------------------|---------------------|-----------------------|
--------------------2--|--3------------L-----|-----------------------|
--3--------L--5--------|------------------3--|--5--------L--0-----2--|


  H        E  E  E  E     H        E  E  E  E     H        E  E  E  E   
-----------------------|-----------------------|-----------------------|
-----------------------|-----------------------|-----------------------|
-----------------------|-----------------------|-----------------------|
--3--------L--0-----2--|--5--------L--0-----2--|--3--------L--0-----2--|


  Q    S E  S E  E  Q       Q.     S S E.  S E  E     Q    Q    Q    Q     
-------------------------|-------------------------|----------------------|
-------------------------|-------------------------|----------------------|
--------------7--7-------|--2------L---2-----2-----|-----------------5----|
--0----0----0------------|-----------2-----2----2--|--5----3----0---------|


  Q.     E  Q    Q       Q    S E  S E  Q    E     Q.     S S E  S S E  E   
----------------------|-------------------------|--------------------------|
----------------------|-------------------------|--------------------------|
----------------------|--------------7--7-------|--2------L---2--2---------|
--3---------3----2----|--0----0----0------------|-----------2------2----2--|


  Q.     S S S S S S E  E       H.           Q        H        E  E  E  E   
---------------------------|-----------------------|-----------------------|
---------------------------|-----------------------|-----------------------|
--3----------3---3---3-----|--2g5------------------|--------------------2--|
-----------3---3---3----3--|-----------------8\----|--3--------L--5--------|


  H        E  E  E  E     H        E  E  E  E     H.           E  E   
-----------------------|-----------------------|---------------------|
-----------------------|-----------------------|---------------------|
--3--------L-----------|--------------------2--|--3------------L-----|
--------------0-----2--|--3--------L--5--------|------------------3--|


  H        E  E  E  E     H        E  E  E  E     H        E  E  E  E   
-----------------------|-----------------------|-----------------------|
-----------------------|-----------------------|-----------------------|
-----------------------|-----------------------|-----------------------|
--5--------L--0-----2--|--3--------L--0-----2--|--5--------L--0-----2--|


  H        E  E  E  E     H        E  E  E  E     H        E  E  E  E   
-----------------------|-----------------------|-----------------------|
-----------------------|-----------------------|-----------------------|
-----------------------|-----------------------|-----------------------|
--3--------L--0-----2--|--5--------L--0-----2--|--3--------L--0-----2--|


  H        E  E  E  E     H        E  E  E  E     W                 
-----------------------|-----------------------|-------------------|
-----------------------|-----------------------|-------------------|
-----------------------|--------------------2--|--3----------------|
--5--------L--0-----2--|--3--------L--5--------|-------------------|


  H        E  E  E  E     Q.     Q.     Q        W                 
-----------------------|----------------------|-------------------|
-----------------------|----------------------|-------------------|
--------------------2--|--3------3------5\----|-------------------|
--3--------L--5--------|--3-------------------|--3----------------|


  H        H          
--------------------||
--------------------||
--------------------||
--L-----------------||




Duration Legend
---------------
W - whole
H - half
Q - quarter
E - 8th
S - 16th
T - 32nd
X - 64th
. - note dotted
|-n-|  - n-tuplets


Tablature Legend
----------------
L - tied note
x - dead note
g - grace note
(n) - ghost note
> - accentuded note
NH - natural harmonic
AH - artificial harmonic
TH - tapped harmonic
SH - semi harmonic
PH - pitch harmonic
h - hammer on
p - pull off
b - bend
br - bendRelease
pb - preBend
pbr - preBendRelease
brb - bendReleaseBend
\n/ - tremolo bar dip
\n - tremolo bar dive
-/n - tremolo bar Release up
/n\ - tremolo bar inverted dip
/n - tremolo bar return
-\n - tremolo bar Release down
S - shift slide
s - legato slide
/ -  slide into from below or out of upwards
\ -  slide into from above or out of downwards
~ - vibrato
W - wide vibrato
tr - trill
TP - tremolo picking
T - tapping
S - slap
P - pop
< - fade in
^ - brush up
v - brush down
comments
We did not receive enough feedback on this tab! Please rate:
print report bad tab
1 2 3 4 5
I want to post or [tab]
guest
You may want to rate the tab now too:
select rating
Please do not post tabs as comments. Select "correction" instead!