Oops, an error
Loading. Please wait.

Already Gone Tab

version 1
version 1

Intro

Whole song

Interactive

69,725 views 81 this week
7 commentsread comments
1 2 3 4 5
accurate
x 16
add to favorites
launch autoscroll
font size
0
reset
how to read this tab
guitar tuner
Autoscroll
slow
fast
+/-
esc
set tempo
stop
Help us to improve Ultimate-Guitar.com Take our survey!
×
Author
The intro is done with more than one guitar, so I've tried to come up with a straight
forward way to play it with one. I find it sounds not to bad with another guitar
playing rhythm.


[Intro]

  N/C            G           D           C
E|----------------------------2------------0-0-s33s1-0-0-----|
B|----------------3--33-3s1---3-3----------1-1-s55s3-1-1-1h3-|
G|-----------2-0--4--44-4s2-0-2-2-0-------------------2-0----|
D|---0-2-4-5------------------------4-2-0--------------------|
A|-4---------------------------------------------------------|
E|-----------------------------------------------------------|

  G            D  C               G
E|---------------------------------3-|
B|---------------------------------0-|
G|----------------------0-2b/\r-0--0-|
D|------0-2b/\r-0---0h2------------0-|
A|---0h2----------3----------------2-|
E|-3-------------------------------3-|


[Intro]

[G] - [D] - [C]


[Verse]

Well, I     [G] heard some people    [D] talkin' just the   [C] other day,
And they [G] said you were gonna [D] put me on a      [C] shelf,
But let me tell you I [G] got some news for [D] you and you'll [C] 
soon find out it's true, And then you'll [G] have to eat your    
[D] lunch all by your- [C] self,

'Cause I'm [G] al.... [D] .....ready   [C] gone,
And I'm     [G] fee...[D] lin'              [C] strong,
I will          [G] sing..[D] this victory [C] song
Woo, hoo, [G] hoo, my, [D] my, woo, hoo, [C] hoo

The [G] letter that you [D] wrote me made me [C] stop and wonder why
But I [G] guess you felt like you [D] had to set things [C] right
[G] Just remember [D] this, my girl, when you [C] look up in the sky
You [G] can see the stars and [D] still not see the [C] light, that's right


[Chorus]

And I'm     [G] al..... [D] .....ready  [C] gone,
And I'm     [G] fee....[D] lin'            [C] strong,
I will          [G] sing...[D] this victory  [C] song
Woo, hoo, [G] hoo, my, [D] my, woo, hoo, [C] hoo


[Verse]

Well, I   [G] know it wasn't   [D] you who held me [C] down
Heaven [G] knows it wasn't [D] you who set me   [C] free
So [G] often times it [D] happens that we [C] live our lives in chains
And we [G] never even [D] know we have the [C] key


[Chorus]

But I'm           [G] al...,.   [D] .....ready    [C] gone,
And I'm          [G] fee...   [D] lin'               [C] strong,
I will               [G] sing..   [D] this victory  [C] song
Cause I'm,    [G] al....,    [D] .....ready     [C] gone

Yes, I'm [C Pause] All.  [G Pause] ready [F] gone
And I'm [C] feelin' [G]     [F]  strong
I will [C] sing [G]  this victory [F] song
'Cause I'm [C] al....[G] ready [F] gone
Yes, I'm [C] al.......[G] ready [F] gone
[C] Al.......[G] ready [F]  gone
[C] Al.......[G] ready [F]  gone
[C] Al.......[G] ready [F]  gone  (fade)
Suggest correction
comments
print report bad tab
7 comments total. Showing first comments.
0 reply
copperhead666 365 wrote on February 17 2006, 12:03 pm

Right on! 5 stars!!!

0 reply
Coc0nutPete 10 wrote on September 27 2007, 11:32 pm

Try this one out too

Intro (Done fast)

|----------------||--------------------------|
|----------------||-3-----3-3-3-3--3-3---3---|
|----------0-2-0-||-2b4---2-2-2-2--2-0---0---|
|----0-2-4-------||----------------------2---|
|--4-------------||--------------------------|
|----------------||--------------------------|

|-----------------------|---------------------------|
|-3--3--3-0-3---3--0----|-1--1--1-1---1--5s6s8-6s8--|
|-0--2--2-0-0---0--0----|-0--0--0-0---0--5s7s9-7s9--|
|-----------4p2----0--0-|-0h2-----2---2-------------|
|-----------------------|---------------------------|
|-----------------------|---------------------------|

|-------------/5-5-----|------5-------------------|
|--8--8s6-5---/5-5-6-6-|-7----5--3-1-------0------|
|--9--9s7-5--------7-7-|-7----5--4-2-------0------|
|-----------7----------|--------------------------|
|----------------------|--------------------------|
|----------------------|--------------------------|

Then

|----------------------|--------------------------|
|----------------------|--------------------------|
|----------------------|--------------------------|
|----------------------|-----------5-7b-5---------|
|-----------5-7b-5---5-|-3----5s7-----------------|
|--3---5s7-------------|--------------------------|


Verse 1

G

|-----------------
|-----------------
|-----------------
|-----------------
|-5-5-7---5-5-7---
|-3-3-3-3-3-3-3-5-

D

|-----------------
|-----------------
|-----------------
|-7-7-9---7-7-9---
|-5-5-5-5-5-5-5-7-
|-----------------

C

|-----------------
|-----------------
|-----------------
|-5-5-7---5-5-7---
|-3-3-3-3-3-3-3-5-
|-----------------

-1 reply
money55 10 wrote on August 11 2008, 01:26 pm

Noobish

guest
You may want to rate the tab now too:
select rating
Please do not post tabs as comments. Select "correction" instead!