Oops, an error
Loading. Please wait.

Already Gone Tab

version 2
version 2

Solo

Whole song

Interactive

4,442 views 6 this week
no commentswrite comment
1 2 3 4 5
please rate
add to favorites
launch autoscroll
font size
0
reset
how to read this tab
guitar tuner
Autoscroll
slow
fast
+/-
esc
set tempo
stop
Help us to improve Ultimate-Guitar.com Take our survey!
×
Difficulty
novice
e----------------|-------------------12t-|
B----------------|-----------------8-----|
G----------------|------------5-7/9------|
D----------------|-------5-5/7-----------|
A--------5-b7-5t—|-3-3-5/7---------------|
E-3-3-5/7--------|-----------------------|

e|---------------------|-------------------------------|
B|---12\10--10-10------|---------13-b15-b15-b15-13-13t-|
G|--------12-----------|-12-12/15----------------------|
D|---------------------|-------------------------------|
A|---------------------|-------------------------------|
E----------------------|-------------------------------|

e|----------------------------|--------------|------------12-|
B|-----------12---------------|----------13--|------12-15----|
G|10-10/12-12—-12t\----10-----|-----12-14----|-12/14---------|
D|----------------10/12--12-12|12/14---------|---------------|
A|----------------------------|--------------|---------------|
E|----------------------------|--------------|---------------|

e---------15-15|-----15-17-15------|-------------|-------------|
B-------12-----|15/17--------17-15-|---------13--|b15----------|
G--12/14-------|-------------------|-------14—14-|---12-14-b15-|
D--------------|-------------------|-12/14-------|-------------|
A--------------|-------------------|-------------|-------------|
E--------------|-------------------|-------------|-------------|


e------------|---------------|
B--11-12-----|---------------|
G-------12-12|------10-------|
D------------|-10/12---12-12-|
A------------|---------------|
E------------|---------------|

e------------------------------------|
B------------------------------------|
G------------------------------------|
D-10-b12-10-10-b12-10-10-b12-10-10t\-|
A------------------------------------|
E------------------------------------|
Suggest correction
What's this?
You can suggest a correction to this tab. Community and Mods will review your correction and vote to approve or reject it.
comments
We did not receive enough feedback on this tab! Please rate:
print report bad tab
1 2 3 4 5
guest
You may want to rate the tab now too:
select rating
Please do not post tabs as comments. Select "correction" instead!