Oops, an error
Loading. Please wait.

Already Gone Tab

version 3
version 3

Solo

  • This version of this song is the most accurate out... Show more

Whole song

Interactive

46 views 12 this week
2 commentsread comments
1 2 3 4 5
x 3
add to favorites
launch autoscroll
font size
0
reset
how to read this tab
guitar tuner
Autoscroll
slow
fast
+/-
esc
set tempo
stop
Help us to improve Ultimate-Guitar.com Take our survey!
×
Author
Difficulty
advanced
About this tab version
This version of this song is the most accurate out of all the versions. Couldn't find a really accurate one, so had to make it, works perfectly with the recording. Was this info helpful? Yes No
ALREADY GONE - EAGLES

[Solo]

e|-----------------------10b~---------------------------------------------------------|
B|-----------------8------------10b---8--10---10-------------------13---15b--15b------|
G|----5----7/8/9-------------------------------------------12/14----------------------|
D|-/7-------------------------------------------------14------------------------------|
A|------------------------------------------------------------------------------------|
E|------------------------------------------------------------------------------------|

e|------------------------------------------------------------------------------------|
B|--13---13---------------------15----------------------------------------------------|
G|--------------12-----14/16-----------0--0---12------12\----0--0-----10--11----------|
D|---------------------------------------------------------------------------12---12--|
A|------------------------------------------------------------------------------------|
E|------------------------------------------------------------------------------------|


e|------------------------------------------------------------------------------------|
B|---------------------------13-----------------------------------13--15---15b--15----|
G|----------------------12---------15b---------x--x---12/13/14--------------------12/-|
D|---10---10---12/14-------------------------x----------------------------------------|
A|------------------------------------------------------------------------------------|
E|------------------------------------------------------------------------------------|

e|------------15-------------------------17-------------------------------------------|
B|--------15----------18-------17b-----------(17)b----15--15-----------------13---13--|
G|-16------------------------------------------------------------------12/14----------|
D|-------------------------------------------------------------12--12-----------------|
A|------------------------------------------------------------------------------------|
E|------------------------------------------------------------------------------------|


e|------------------------------------------------------------------------------------|
B|---------15b------------------11h12-------------------------------------------------|
G|-14-------------12---14b--b-----------12------12------0--0----10h11-----------------|
D|-----------------------------------------------------------------------12--12-------|
A|--------------------------------------------------------------------------------12b-|
E|------------------------------------------------------------------------------------|

e|--------------------------------------------------------------------|
B|--13--------------13----------------------13------------------------|
G|--------------------------------------------------------------------|
D|------10----12b-------10-----10----12b----------10---10-------------|
A|----------------------------------------------------------12--10----|
E|--------------------------------------------------------------------|


************************************

| b  Bend
| /  Slide up
| \  Slide down
| x  Dead note
| h  Hammer-on

************************************
Suggest correction
Give kudos to tab author, rate the tab!
1 2 3 4 5
comments
print report bad tab
2 comments total.
0 reply
ashleygrace11 188 Nov 07, 2016 02:28 AM

great work, keep it up!

0 reply
lukegooden02 11 Nov 07, 2016 02:32 AM

yeah, epic as

guest
You may want to rate the tab now too:
select rating
Wanna post a correction for this tab? Suggest correction