Oops, an error
Loading. Please wait.

Bristol Express tab

by Eagles
94 views 1 this week
no commentswrite comment
1 2 3 4 5
2 more votes to show rating
add to favorites
×
Save as Personal and add changes to this tab that will be seen only by you. Learn more ›
×
You can save this tab as Personal to edit and correct it or add notes. All changes will be seen only by you. Learn more »
launch autoscroll
font size
0
reset
how to read this tab
guitar tuner
edit
Autoscroll
slow
fast
+/-
esc
set tempo
stop
Author
Song: Bristol Express
Band: The Eagles
Album: Smash Hits From The Eagles
Year: 1963
Tabber: beranger80@hotmail.com
Link: https://www.youtube.com/watch?v=wz2fJLTjkKE&app=desktop



Intro (0:10)

e--15-15--|
b--15-15--|
g--16-16--|
d--17-17--|
a---------|
e---------|



Verse (0:13)

e---------------------------------|-------------------------------|
b---------------------------------|-------------------------------|
g---------------------------------|-------------------------------|
d-----7-8----7-8--------7-8----7--|--7-8-10-7-8-10-7--7-8-10-7-8--|
a--10-----10-----10--10-----10----|-------------------------------|
e---------------------------------|-------------------------------|

e------------------------------------|------------------------------------|
b------------------------------------|------------------------------------|
g------------------------------------|------------------------------------|
d-----7-8----7-8--------7-8-8/10-----|--7-8-10-7-----7-8----------7-------|
a--10-----10-----10--10----------10--|------------10-----10--9-10---9-10--|
e------------------------------------|------------------------------------|



Chorus (0:39)

e-----------------|---------------|-------------------------|----------------------|
b-----------------|---------------|-------------------------|----------------------|
g-----8-----------|----7----------|----5--------------------|----------------------|
d-------7-8-10-7--|------5-7-8-5--|------7-8-10-7-12-12-12--|----------------------|
a--10-------------|--8------------|--6----------------------|--8-8-10-10-12-12-10--|
e-----------------|---------------|-------------------------|----------------------|

e-----------------|---------------|-------------------------|
b-----------------|---------------|-------------------------|
g-----8-----------|----7----------|----5--------------------|
d-------7-8-10-7--|------5-7-8-5--|------7-8-10-7-12-12-12--|
a--10-------------|--8------------|--6----------------------|
e-----------------|---------------|-------------------------|



Bridge (1:05)

G G Eb 
G# G# Em



Verse (1:19)

e------------------------------------|----------------------------------|
b------------------------------------|----------------------------------|
g------------------------------------|----------------------------------|
d-----9-10----9-10--------9-10----9--|-9-10-12-9-10-12-9--9-10-12-9-10--|
a--12-----12------12--12-------12----|----------------------------------|
e------------------------------------|----------------------------------|

e---------------------------------------|---------------------------------------|
b---------------------------------------|---------------------------------------|
g---------------------------------------|---------------------------------------|
d-----9-10----9-10--------9-10-10/12----|--9-10-12-9-----9-10----------9--------|
a--12-----12-----12--12-------------12--|------------12------12--11-12---11-12--|
e---------------------------------------|---------------------------------------|



Chorus (1:44)

e-----13--------------|-----12-------------|------10-------------12-12-12--|------------------------|
b--------12-13-15-12--|-------10-12-13-10--|--------12-13-15-12------------|------------------------|
g--13-----------------|--12----------------|--10---------------------------|--12-12-14-14-16-16-14--|
d---------------------|--------------------|-------------------------------|------------------------|
a---------------------|--------------------|-------------------------------|------------------------|
e---------------------|--------------------|-------------------------------|------------------------|

e-----13--------------|-----12-------------|-----10-------------12-12-12--|
b--------12-13-15-12--|-------10-12-13-10--|--------12-13-15-12-----------|
g--13-----------------|--12----------------|--10--------------------------|
d---------------------|--------------------|------------------------------|
a---------------------|--------------------|------------------------------|
e---------------------|--------------------|------------------------------|



Bridge (2:10)

e--17----15--|--17----17--|--16----14--|--16----16--|--15----13--|
b-----17-----|-----17-----|-----16-----|-----16-----|-----15-----|
g------------|------------|------------|------------|------------|
d------------|------------|------------|------------|------------|
a------------|------------|------------|------------|------------|
e------------|------------|------------|------------|------------|
           x3                        x3                        x3

e---------------------|---------------------|
b---------------------|---------------------|
g--10/12-15-12--------|--10/12-15-12--------|
d--------------15-12--|--------------15-12--|
a---------------------|---------------------|
e---------------------|---------------------|



Verse (2:22)

e---------------------------------|-------------------------------|
b---------------------------------|-------------------------------|
g---------------------------------|-------------------------------|
d-----7-8----7-8--------7-8----7--|--7-8-10-7-8-10-7--7-8-10-7-8--|
a--10-----10-----10--10-----10----|-------------------------------|
e---------------------------------|-------------------------------|

e--15-17-18-15-17-18-15--15-17-18-18/20-15--|--17-18-20-17--15-17-18-17--14-15-17-14-15--|
b-------------------------------------------|--------------------------------------------|
g-------------------------------------------|--------------------------------------------|
d-------------------------------------------|--------------------------------------------|
a-------------------------------------------|--------------------------------------------|
e-------------------------------------------|--------------------------------------------|



Outro (2:46)

e--15----13--|
b-----15-----|
g------------|
d------------|
a------------|
e------------|
           x8



End (2:52)

e--15--|
b--15--|
g--16--|
d--17--|
a------|
e------|
Suggest correction
Creating personal tab
Creating personal tab
You can edit any tab online and save it as your Personal.

You can edit, replace or remove any tab part or add personal notes – all changes will be seen only by you.

Personal tabs can be accessed anytime from any device, even offline.
Learn more »
Give kudos to tab author, rate the tab!
1 2 3 4 5
comments
print report bad tab
guest
You may want to rate the tab now too:
select rating
Wanna post a correction for this tab? Suggest correction