Oops, an error
Loading. Please wait.

Busy Being Fabulous bass

version 1
version 1

Whole song

Interactive

by Eagles
250 views 3 this week
no commentswrite comment
1 2 3 4 5
3 more votes to show rating
add to favorites
×
Save as Personal and add changes to this tab that will be seen only by you. Learn more ›
×
You can save this tab as Personal to edit and correct it or add notes. All changes will be seen only by you. Learn more »
launch autoscroll
font size
0
reset
guitar tuner
edit
Autoscroll
slow
fast
+/-
esc
set tempo
stop
Author
Difficulty
Eagles
Busy Being Fabulous
Album:  Long Road Out of Eden  (2007)

Intro: 00:01    (C  Am  F  G) Chords play x2 - Bass as written
G|-----------||-------------|-------------|-
D|-5-7-5-----||---------5---|-------------|-
A|-------7-5-||-3r-3-3----7-|-------------|-
E|-----------||-------------|-5r-5-5--x-3-|-   

G|-------------|--------5-----||-------------|-------------|-
D|-3r-3-3--3-4-|-5r-5-5---7-5-||---------5---|-------------|- 
A|-------------|--------------||-3r-3-3----7-|-------------|-
E|-------------|--------------||-------------|-5r-5-5--x-3-|-          

G|-------------|--------5-----||-
D|-3r-3-3--3-4-|-5r-5-5---7-5-||- 
A|-------------|--------------||-     
E|-------------|--------------||- 

Verse1: 00:21  
G|-------------|-------------|-
D|---------5---|-------------|-
A|-3r-3-3----7-|-------------|-
E|-------------|-5r-5-5--x-3-|-   
C                 Am
I came home to an empty house
G|-------------|-------------|-
D|-----------5-|-------------|-
A|-3r-3-3--7---|-------------|-
E|-------------|-5r-5-5--x-3-|-   
C                Am
And I found your little note

G|-------------|--------5-----|-
D|-3r-3-3--3-4-|-5r-5-5---7-5-|- 
A|-------------|--------------|-     
E|-------------|--------------|- 
F                  G
"Don't wait up for me tonight"
G|-------------|---------5r---------||-
D|-3r-3-3--3-4-|-5r-5-5-----7-5-----||-
A|-------------|----------------7-5-||-     
E|-------------|--------------------||- 
F                G
And that was all she wrote


Verse2: 00:40  
G|-------------|-------------|-
D|---------5---|-------------|-
A|-3r-3-3----7-|-------------|-
E|-------------|-5r-5-5--x-3-|-   
C                         Am
Do you think I don't know that you're out on the town
G|-------------|-------------|-
D|-----------5-|-------------|-
A|-3r-3-3--7---|-------------|-
E|-------------|-5r-5-5--x-3-|-   
C                     Am
With all of your high-rollin' friends?

G|-------------|--------5-----|-
D|-3r-3-3--3-4-|-5r-5-5---7-5-|- 
A|-------------|--------------|-     
E|-------------|--------------|- 
F                       G
What do you do when you come up empty?
G|-------------|--------5r---------||-
D|-3r-3-3--3-4-|-5r-5-5----7-5-----||-
A|-------------|---------------7-5-||-     
E|-------------|-------------------||- 
F                        G
Where do you go when the party ends?


Chorus1: 00:59  
G|-------------|-------------|-
D|---------5---|-------------|-
A|-3r-3-3----7-|-------------|-
E|-------------|-5r-5-5--x-3-|-   
             C                   Am
And you were just too busy being fabulous
G|-------------|--------5-----|-
D|-3r-3-3--3-4-|-5r-5-5---7-5-|- 
A|-------------|--------------|-     
E|-------------|--------------|- 
F           G
Too busy to think about us
G|-------------|-------------|-
D|-------------|-------------|-
A|-3r-3-3------|-------------|-
E|---------0-3-|-5r-5-5--x-3-|-   
C                          Am
I don't know what you were dreaming of
G|-------------|--------5-----|-
D|-3r-3-3--3-4-|-5r-5-5---7-5-|- 
A|-------------|--------------|-     
E|-------------|--------------|- 
F           G
Somehow you forgot about love
G|-------------------------||---------|-----------|-
D|-----------3r-3-5--5-----||---------|-5-7-5-----|-
A|-3r-3-3--------------3r--||-3r-3-3--|-------7-5-|-  
E|---------3---------------||---------|-----------|-   
            C                   F    G       C
And you were just too busy being fabulous, uh-huh


Verse3: 01:28  
G|-------------|-------------|-
D|---------5---|-------------|-
A|-3r-3-3----7-|-------------|-
E|-------------|-5r-5-5--x-3-|-   
C                    Am
A little time in the country
G|-------------|-------------|-
D|-----------5-|-------------|-
A|-3r-3-3--7---|-------------|-
E|-------------|-5r-5-5--x-3-|-   
C              Am
A day or two to slow down

G|-------------|--------5-----|-
D|-3r-3-3--3-4-|-5r-5-5---7-5-|- 
A|-------------|--------------|-     
E|-------------|--------------|- 
F                      G
A bottle of wine and a walk in the moonlight
G|-------------|--------5r---------||-
D|-3r-3-3--3-4-|-5r-5-5----7-5-----||-
A|-------------|---------------7-5-||-     
E|-------------|-------------------||- 
F                  G
Maybe some foolin' around


Verse4: 01:47  
G|-------------|-------------|-
D|---------5---|-------------|-
A|-3r-3-3----7-|-------------|-
E|-------------|-5r-5-5--x-3-|-   
C                     Am
But you think time is just a magazine
G|-------------|-------------|-
D|-----------5-|-------------|-
A|-3r-3-3--7---|-------------|-
E|-------------|-5r-5-5--x-3-|-   
C                  Am
And money's just a thrill

G|-------------|--------5-----|-
D|-3r-3-3--3-4-|-5r-5-5---7-5-|- 
A|-------------|--------------|-     
E|-------------|--------------|- 
F                       G
I've waited so long for you to change your way of livin'
G|-------------|--------5r---------||-
D|-3r-3-3--3-4-|-5r-5-5----7-5-----||-
A|-------------|---------------7-5-||-     
E|-------------|-------------------||- 
F                  G
Now I realize that you never will


Chorus2: 02:06  
G|-------------|-------------|-
D|---------5---|-------------|-
A|-3r-3-3----7-|-------------|-
E|-------------|-5r-5-5--x-3-|-   
             C                   Am
And you were just too busy being fabulous
G|-------------|--------5-----|-
D|-3r-3-3--3-4-|-5r-5-5---7-5-|- 
A|-------------|--------------|-     
E|-------------|--------------|- 
F           G
Too busy to think about us
G|-------------|-------------|-
D|-------------|-------------|-
A|-3r-3-3------|-------------|-
E|---------0-3-|-5r-5-5--x-3-|-   
C                            Am
Lookin' for something you'll never find
G|-------------|--------5r---------||-
D|-3r-3-3--3-4-|-5r-5-5----7-5-----||-
A|-------------|---------------7-5-||-     
E|-------------|-------------------||- 
F                          G
You'll never know what you left behind
G|-------------------------||---------|-----------|-
D|-----------3r-3-5--5-----||---------|-5-7-5-----|-
A|-3r-3-3--------------3r--||-3r-3-3--|-------7-5-|-  
E|---------3---------------||---------|-----------|-   
                C                   F    G       C
'Cause you were just too busy being fabulous, uh-huh

Break: 02:35  
G|------------|------------|-
D|---------5p-|------------|-
A|-3r-3-3-----|------------|-  
E|------------|-5r-5-5--3p-|-   
C          Caug     Am/C         Caug
You tell a joke and everybody's laughin'
G|------------|------------|-
D|---------5p-|------------|-
A|-3r-3-3-----|---------3p-|-  
E|------------|-5r-5-5-----|-   
C                Caug     Am/C   Caug
That's something you know how to do
G|------------|-------------|------------|-
D|------------|--2r-2-2-----|------------|-
A|-3r-3-3--0--|-------------|------------|-  
E|------------|----------5p-|-5r-5-5--3p-|-   
C             E7        Am7
You've always been the life of the party
G|------------|------------|-
D|------------|------------|-
A|-5r-5-5-----|------------|-  
E|---------5\-|-3r-3-3--3h-|-   

    D7               G
But now my baby, the joke is on you

Chorus3: 02:53  
G|-------------|-------------|-
D|---------5---|-------------|-
A|/3r-3-3----7-|-------------|-
E|-------------|-5r-5-5--x-3-|-   
             C                   Am
And you were just too busy being fabulous
G|-------------|--------5r---------||-
D|-3r-3-3--3-4-|-5r-5-5----7-5-----||-
A|-------------|---------------7-5-||-     
E|-------------|-------------------||- 
F           G
Too busy to think about us
G|-------------|-------------|-
D|-------------|-------------|-
A|-3r-3-3------|-------------|-
E|---------0-3-|-5r-5-5--x-3-|-   
C                            Am
Running after something that never comes
G|-------------|--------5-----|-
D|-3r-3-3--3-4-|-5r-5-5---7-5-|- 
A|-------------|--------------|-     
E|-------------|--------------|- 
F                         G
What in the world are you runnin' from?

Chorus3: 03:13  
G|-------------|-------------|-
D|---------5---|-------------|-
A|-3r-3-3----7-|-------------|-
E|-------------|-5r-5-5--x-3-|-   
             C                   Am
And you were just too busy being fabulous
G|-------------|--------5r---------||-
D|-3r-3-3--3-4-|-5r-5-5----7-5-----||-
A|-------------|---------------7-5-||-     
E|-------------|-------------------||- 
F           G
Too busy to think about us
G|-------------|-------------|-
D|-------------|-------------|-
A|-3r-3-3------|-------------|-
E|---------0-3-|-5r-5-5--x-3-|-   
C                           Am
To drink the wine from your winner's cup
G|-------------|--------5r---------||-
D|-3r-3-3--3-4-|-5r-5-5----7-5-----||-
A|-------------|---------------7-5-||-     
E|-------------|-------------------||- 
F                      G
To notice the children were growin' up


Outro: 03:32  
G|-------------|-------------|-
D|---------5---|-------------|-
A|-3r-3-3----7-|-------------|-
E|-------------|-5r-5-5--x-3-|-   
             C                   Am
And you were just too busy being fabulous
G|------------|-------5r---------||-
D|-3r-3---3-4-|-5r-5-----7-5-----||-
A|------------|--------------7-5-||-     
E|------------|------------------||- 
F         G
Too busy, too busy

Finale: 03:42    (C Am F G) x4   
G||-------------|-------------||-------------|--------5---------||-
D||---------5---|-------------||-3r-3-3--3-4-|-5r-5-5---7-5-----||-
A||-3r-3-3----7-|-------------||-------------|--------------7-5-||-
E||-------------|-5r-5-5--x-3-||-------------|------------------||-   
 
Ooohh
Too busy...

end with C...
G||------------||
D||------------||
A||-3rrr-------||
E||------------||   

End: 04:21

            
            
Suggest correction
Creating personal tab
Creating personal tab
You can edit any tab online and save it as your Personal.

You can edit, replace or remove any tab part or add personal notes – all changes will be seen only by you.

Personal tabs can be accessed anytime from any device, even offline.
Learn more »
Give kudos to tab author, rate the tab!
1 2 3 4 5
comments
print report bad tab
guest
You may want to rate the tab now too:
select rating
Wanna post a correction for this tab? Suggest correction