Oops, an error
Loading. Please wait.

Certain Kind Of Fool Chords

11,091 views 27 this week
no commentswrite comment
1 2 3 4 5
x 9
add to favorites
launch autoscroll
font size
0
reset
transpose
0
reset
simplify chords
display chords
guitar tuner
×
Best way to learn
"Certain Kind Of Fool"
Autoscroll
slow
fast
+/-
esc
set tempo
stop
Certain Kind Of Fool (Randy Meisner, Glenn Frey & Don Henley)
From "DESPERADO". 1973.

[INTRO] Dsus4 D - Dsus4 D Asus4 A Asus4 A (2 times)

    Dsus4    D    Dsus4        D         Asus4   A    Asus4
He was a poor boy, raised in a small family
  A           Dsus4  D   Dsus4            D              Asus4   A   Asus4
He kind of had a craving for something no one else could see
 A                 Dsus4 D   Dsus4             D      Asus4    A   Asus4
They said that he was crazy, the kind that no lady should meet
A            Dsus4  D   Dsus4          D          Asus4     A    Asus4   A
He ran off to the city, and wandered around in the street

     Dsus4  E5    E   A/E  E  E5  E
He wants to dance,              oh yeah!
A/E       E  E5   E  A/E  E  E5  E
He wants to sing,              oh yeah!
A/E      G                             D                      Asus4     A
He wants to see the lights aflashing, and listen to the thundering

               Dsus4 D    Dsus4       D          Asus4    A    Asus4
He saw it in a win___dow, a mark of a new kind of man
A             Dsus4      D   Dsus4     D            Asus4    A    Asus4
He kind of liked the feeling, so shiny smooth in his hand
A              C     G      C                G            D       A
He took it to the country, and practised for days without rest
                Dsus4   D   Dsus4             D             Asus4  A  Asus4  A
And then one day he felt it, he knew he could stand with the best

         E5      E  A/E  E  E5  E
They got respect,             oh yeah!
A/E        E   E5  E  A/E  E  E5  E
He wants the same,              oh yeah!
A/E      G                                 D                           Asus4   A
And it's a certain kind of fool who likes to hear the sound of his own name

[Guitar solo]
                        Bm
e|-------------------|-----------------------------|
B|-------------------|-----------------------10<12~|
G|----------7--9--7--|--9<11<(9)-9<11<(9)-7--------|
D|---(4)/9-----------|-----------------------------|
A|-------------------|-----------------------------|
E|-------------------|-----------------------------|

                         E                    ~         ~
e|---------------------------|--------------------|------------------7-|
B|~~~~-10<12<(10)-10<12<(10)-|-10<12<(10)-7-------|----------------7---|
G|---------------------------|--------------9-7---|-----7--------------|
D|---------------------------|------------------9-|-9---------9<11-----|
A|---------------------------|--------------------|--------------------|
E|---------------------------|--------------------|--------------------|

    Bm       ~                                 E
e|--------------------|-----10-10-12-12<14---12-10|10h12--12--12-10-12-12-|
B|-10p7---------------|-/12-----------------------|-----------------------|
G|------9-7--------7--|---------------------------|-----------------------|
D|----------9-9-------|---------------------------|-----------------------|
A|--------------------|---------------------------|-----------------------|
E|--------------------|---------------------------|-----------------------|

                 G                               D                     A
e|--12\-------------|-------------------------|--------------------------|
B|------------8--8--|--------8-8--------------|-------7-7-7--------------|
G|--------/9--------|-10<12-------10<12-10<12-|-9<11--------9<11<(9)-7p9-|
D|------------------|-------------------------|--------------------------|
A|------------------|-------------------------|--------------------------|
E|------------------|-------------------------|--------------------------|

                          ~~~~~~~~~~~~~~~~~~~~~~~
e|---------------------|-------------------------|
B|--9\7--7\5--5\3--3\2-|--2----------------------|
G|--9\7--7\6--6\4--4\2-|--2----------------------|
D|---------------------|-------------------------|
A|---------------------|-------------------------|
E|---------------------|-------------------------|

             Dsus4 D     Dsus4          D       Asus4   A   Asus4
A poster on a store front, a picture of a wanted man
 A         Dsus4 D Dsus4            D               Asus4
He had a reputation, spreading like fire through the land
             Dsus4                                        D    A
It wasn't for the money, at least it didn't start that way
                 Dsus4 D  Dsus4                  D  Asus4     A7
It wasn't for the running, but now he's running ev'ryday.

************************************

| ~  Vibrato
| h  Hammer-on
| p  Pull-off
| /  Slide up
| \  Slide down

************************************
Suggest correction
comments
print report bad tab
guest
You may want to rate the tab now too:
select rating
Wanna post a correction for this tab? Suggest correction