Oops, an error
Loading. Please wait.

Desperado Bass Tab

version 2
version 2

Whole song

Interactive

8,406 views 24 this week
no commentswrite comment
1 2 3 4 5
please rate
add to favorites
launch autoscroll
font size
0
reset
guitar tuner
Autoscroll
slow
fast
+/-
esc
set tempo
stop
Help us to improve Ultimate-Guitar.com Take our survey!
×
Author
Difficulty
novice
Song: Desperado
Artist: Eagles
Author: Dave Rancour (drancour@gmail.com)
Tuning: EADG (Standard)

  Don't your feet get cold in the winter time

G|-------------------------------------------|
D|-------------------------------------------|
A|--------------------------------2----------|
E|-----------0-------------------------------|

  The sky won't snow and sun won't shine
G|-------------------------------------------|
D|-------------------------------------------|
A|----3--------------------------------------|
E|-----------------------3---------2---------|

  It's hard to tell the nighttime from the day
G|-------------------------------------------|
D|-------------------------------------------|
A|----------------------3--------------------|
E|0----------------------------------------3-|

  Your losin all your highs and lows
G|-------------------------------------------|
D|-------------------------------------------|
A|--------------------2----------------------|
E|0------------------------------------------|

* There's a trailer here at the end of this verse
  from A (5 on the E string) to D (5 on the A string)
  - listen to the song for the timing

  Ain't it funny how the feeling goes away
G|--------------------------------------------|
D|--------------------------------------------|
A|3-----------------------------------------5-|
E|-----------------------3------------5-------|

  Desperado, why don't you come to your senses
G|-------------------------------------------|
D|-------------------------------------------|
A|-----------0-2-----------3----3--3----3----|
E|------3-3----------------------------------|


* Little run after "gate", goes into the next verse
  Listen to the song for the time, pretty smooth 8th notes

  Come down from your fences, open the gate
G|-----------------------------------------------------|
D|-----------------------------------------------------|
A|-------------------------------------5------5-3-2-0--|
E|3---------2---------0-------5------------------------|

  It might be rainin', but there's a rainbow above you
G|----------------------------------------------------|
D|----------------------------------------------------|
A|---------------------0---2---------3---3---3-----3--|
E|------------3-3-------------------------------------|

  You better let somebody love you (Let somebody love you)
G|--------------------------------------------------------|
D|--------------------------------------------------------|
A|----------------------------------3---2----------0------|
E|-----------3---2----------0-----------------------------|

  You better let somebody love you before it's too late
G|-----------------------------------------------------|
D|-----------------------------------------------------|
A|-----------5---6--------7----------------------------|
E|-----------------------------------------------------|
Suggest correction
What's this?
You can suggest a correction to this tab. Community and Mods will review your correction and vote to approve or reject it.
comments
We did not receive enough feedback on this tab! Please rate:
print report bad tab
1 2 3 4 5
guest
You may want to rate the tab now too:
select rating
Please do not post tabs as comments. Select "correction" instead!