Oops, an error
Loading. Please wait.

Get Over It Tab

version 1
version 1

Intro

Whole song

Interactive

17,411 views 15 this week
3 commentsread comments
1 2 3 4 5
x 9
add to favorites
launch autoscroll
font size
0
reset
how to read this tab
guitar tuner
Autoscroll
slow
fast
+/-
esc
set tempo
stop
Help us to improve Ultimate-Guitar.com Take our survey!
×
Author
Difficulty
intermediate
-------------------------------------------------------------------------------
                             Get over it - The Eagles
-------------------------------------------------------------------------------
Tabbed by: Jedman2000J
Email: jedman2000@hotmail.com

Tuning: Standard

I am 99% SURE that this is correct, if not 100%! 
This is an easy intro but sounds great if you 
crank up the distortion and reverb. 
This is my first tab. 
Listen to the song to get the timing. 
Enjoy

e|---------------------------------------------------------------------------|
B|-------------6-6--------------6--8--8^----8--6-----------------------------|
G|-------5--7-------7~~-----/7---------------------7--7~~--------------------|
D|---/7----------------------------------------------------------------------|
A|---------------------------------------------------------------------------|
E|---------------------------------------------------------------------------|

e|-----------------------0---------------------------------------------------|
B|--6--------------------2---------------------------------------------------|
G|----7--5---------------3---------------------------------------------------|
D|---------7--5----------0---------------------------------------------------|
A|--------------7--5--0--0---------------------------------------------------|
E|---------------------------------------------------------------------------|

| /  slide up
| \  slide down
| h  hammer-on
| p  pull-off
| ~  vibrato
| +  harmonic
| x  Mute note
| ^  Bend

Suggest correction
comments
print report bad tab
3 comments total.
0 reply
kmd90210 40 Dec 31, 2008 10:31 PM

nice tab

+1 reply
Mr. Salt 30 Aug 02, 2009 04:05 PM

That last chord doesn't sound right...the rest of it sounds pretty good, though. Nice job.

+1 reply
thamlett 61 Jul 17, 2013 05:54 PM

e|-----------------------0----------------------------------------------|
B|--6--------------------2----------------------------------------------|
G|----7--5---------------3----------------------------------------------|
D|---------7--5----------0----------------------------------------------|
A|--------------8--5--0--0----------------------------------------------|
E|----------------------------------------------------------------------|

I could be wrong but this sounded more correct to me and it stays in the A minor pentatonic scale. Also the D chord at the end is correct MR. Salt

guest
You may want to rate the tab now too:
select rating
Wanna post a correction for this tab? Suggest correction