Oops, an error
Loading. Please wait.

Get Over It Tab

version 1
version 1

Solo

Whole song

Interactive

8,103 views 6 this week
no commentswrite comment
1 2 3 4 5
2 more votes to show rating
add to favorites
launch autoscroll
font size
0
reset
how to read this tab
guitar tuner
Autoscroll
slow
fast
+/-
esc
set tempo
stop
Help us to improve Ultimate-Guitar.com Take our survey!
×
Author
-------------------------------------------------------------------------------
                             Get Over it solo - Eagles
-------------------------------------------------------------------------------
Tabbed by: Manug20

well i learned the whole solo by ear, and i think it's about 98% right.
fun song to play, enjoy!

The eagles 


Tuning:standard

*= release bend 

e|---13-13-------------------------------------------------------------------|
B|---12-12-----15p14-15-15~~~--------------15--13b15~~--13b15*13---9-9~~~~~--|
G|---14-14--------------------------14-14------------------------------------|
D|-----------------------------/15-------------------------------------------|
A|---------------------------------------------------------------------------|
E|---------------------------------------------------------------------------|
              bivrato or 1/4 bend
e|--------9--13~~13~~13~~13~~13~~13~~--13p9---9------------------------------|
B|--9--13-----------------------------------9---13~-13-----------------------|
G|-----------------------------------------------------14-12-----------------|
D|-----------------------------------------------------------15~-------------|
A|---------------------------------------------------------------------------|
E|---------------------------------------------------------------------------|

e|---------------19b20---17-16-15--13--13-15b17--------------13-------------------------------|
B|----------15-15--------------------15-----------------15p13--15p13-15p13-----15--13---------|
G|-------/17-----------------------------------------------------------------14--14--14-12----|
D|----------------------------------------------------------------------------------------15~-|
A|--------------------------------------------------------------------------------------------|
E|--------------------------------------------------------------------------------------------|

e|---------12b13-10--12b13-10--12b13-10---12b13-10-----10-------------------------------------------|
B|-----------------10--------10--------10---------10-----13-10--------------------------------------|
G|------------------------------------------------------------12b13*12-10------12b14-12-10----------|
D|-----------------------------------------------------------------------12-10------------12~~~~~---|
A|---12p10------------------------------------------------------------------------------------------|
E|--------------------------------------------------------------------------------------------------|


| /  slide up
| \  slide down
| h  hammer-on
| p  pull-off
| ~  vibrato
| *  release bend
| +  harmonic
| x  Mute note

BIRDS CAN FLY!!!!!!!!!!!! HOW DEEP?!

===============================================================================
Suggest correction
Give kudos to tab author, rate the tab!
1 2 3 4 5
comments
print report bad tab
guest
You may want to rate the tab now too:
select rating
Wanna post a correction for this tab? Suggest correction