Oops, an error
Loading. Please wait.

Greeks Dont Want No Freaks Bass Tab

version 1
version 1

Whole song

Interactive

301 views 1 this week
no commentswrite comment
1 2 3 4 5
3 more votes to show rating
add to favorites
launch autoscroll
font size
0
reset
guitar tuner
Autoscroll
slow
fast
+/-
esc
set tempo
stop
Help us to improve Ultimate-Guitar.com Take our survey!
×
Author
Difficulty
novice
                                
-----------------------------------------------------------------------------
	         The Greeks Don't Want No Freaks - The Eagles (BASS)
                       
-----------------------------------------------------------------------------
Tabbed by: Scotto10

Tuning: Standard

=============================================================================

Bass



     E  E  E  E  E  E  E  E     W                   E  E  E  E  E  E  E  E   
G||--------------------------|-------------------|--------------------------|
D||--------2--5--------0--3--|-------------------|--------2--5--------0--3--|
A||--3--3--------1--1--------|--3----------------|--3--3--------1--1--------|
E||--------------------------|-------------------|--------------------------|


  W                   E  E  E  E  E  E  E  E     E  E  E  E  E  E  E  E   
-------------------|--------------------------|--------------------------|
-------------------|--------2--5--------0--3--|--------2--5--------0--3--|
--3----------------|--3--3--------1--1--------|--3--3--------1--1--------|
-------------------|--------------------------|--------------------------|


  E  E  E  E  E  E  E  E     W                   E  E  E  E  E  E  E  E    
--------------------------|-------------------|---------------------------|
--------2--5--------0--3--|-------------------|--------5-----------3------|
--3--3--------1--1--------|--3----------------|--3--3-----3--1--1-----1s--|
--------------------------|-------------------|---------------------------|


  E  E  E  E  E  E  E  E     E  E  E  E  Q    E  E     E  E  E  E  E  E  E  E   
--------------------------|-------------------5-----|--------------------------|
--------------------------|--------5-----3-------5--|--------------------------|
--3--3--3--3--3--3--3--3--|--3--3-----3-------------|--3--3--3--3--3--3--3--3--|
--------------------------|-------------------------|--------------------------|


  E  E  E  E  E  E  E  E     E  E  E  E  E  E  E  E   
--------------------------|--3--3--3--3--3--3--------|
--------2--5--------2--5--|--------------------0--1--|
--3--3--------3--3--------|--------------------------|
--------------------------|--------------------------|


  E  E  E  E  E  E  E  E     E  E  E  E  E  E  E  E   
--------2--5--------2--5--|--------------------------|
--3--3--------3--3--------|--5--5--5--5--5--5--5--5--|
--------------------------|--------------------------|
--------------------------|--------------------------|


  E  E  E  E  E  E  E  E     E  E  E  E  E  E  E  E   
--------------------2--5--|--------------------2--5--|
--------2--5--3--3--------|--------2--5--3--3--------|
--3--3--------------------|--3--3--------------------|
--------------------------|--------------------------|


  E  E  E  E  E  E  E  E     E  E  E  E  E  E  E  E   
--------------------2--5--|--------------------2--5--|
--------2--5--3--3--------|--------2--5--3--3--------|
--3--3--------------------|--3--3--------------------|
--------------------------|--------------------------|


  E  E  E  E  E  E  E   E     E  E  E   E  E  E  E   E   
--------------------7--10--|----------------------------|
--------2--5--8--8---------|--------7--10--------7--10--|
--3--3---------------------|--8--8---------8--8---------|
---------------------------|----------------------------|


  E  E  E   E  E  E  E  E     E  E  E  E  E  E  E  E   
---------------------------|--------------------------|
---------------------------|--------------------------|
--------7--10--------------|--------------------------|
--8--8---------6--6--6--6--|-----3--3--3--3--3--3--3--|


  E  E  E  E  E  E  E  E     E  E  E  E  E  E  E  E   
--------------------------|--------------------------|
--------2--5--------0--3--|--------------------------|
--3--3--------1--1--------|--3--3--3--3--3--3--3--3--|
--------------------------|--------------------------|


  E  E  E  E  E  E  E  E     E  E  E  E  E  E  E  E   
--------------------------|--------------------------|
--------2--5--------0--3--|--------------------------|
--3--3--------1--1--------|--3--3--3--3--3--3--3--3--|
--------------------------|--------------------------|


  E  E  E  E  E  E  E  E     E  E  E  E  E  E  E  E   
--------------------------|--------------------------|
--------2--5--------0--3--|--------2--5--------0--3--|
--3--3--------1--1--------|--3--3--------1--1--------|
--------------------------|--------------------------|


  E  E  E  E  E  E  E  E     E  E  E  E  E  E  E  E   
--------------------------|--------------------------|
--------2--5--------0--3--|--------------------------|
--3--3--------1--1--------|--3--3--3--3--3--3--3--3--|
--------------------------|--------------------------|


  E  E  E  E  E  E  E  E      E  E  E  E  E  E  E  E   
---------------------------|--------------------------|
--------5-----------3------|--------------------------|
--3--3-----3--1--1-----1s--|--3--3--3--3--3--3--3--3--|
---------------------------|--------------------------|


  E  E  E  E  Q    E  E     E  E  E  E  E  E  E  E     E  E  E  E  E  E  E  E   
-------------------5-----|--------------------------|--------------------------|
--------5-----3-------3--|--------------------------|--------2--5--------2--5--|
--3--3-----3-------------|--3--3--3--3--3--3--3--3--|--3--3--------3--3--------|
-------------------------|--------------------------|--------------------------|


  E  E  E  E  E  E  E  E     E  E  E  E  E  E  E  E   
--------------------------|--------2--5--------2--5--|
--------0--3--------0--3--|--3--3--------3--3--------|
--1--1--------1--1--------|--------------------------|
--------------------------|--------------------------|


  E  E  E  E  E  E  E  E     E  E  E  E  E  E  E  E   
--------------------------|--------------------2--5--|
--5--5--5--5--5--3--2-----|--------2--5--3--3--------|
-----------------------5--|--3--3--------------------|
--------------------------|--------------------------|


  E  E  E  E  E  E  E  E     E  E  E  E  E  E  E  E   
--------------------2--5--|--------------------2--5--|
--------2--5--3--3--------|--------2--5--3--3--------|
--3--3--------------------|--3--3--------------------|
--------------------------|--------------------------|


  E  E  E  E  E  E  E  E     E  E  E  E  E  E  E   E   
--------------------2--5--|--------------------7--10--|
--------2--5--3--3--------|--------2--5--8--8---------|
--3--3--------------------|--3--3---------------------|
--------------------------|---------------------------|


  E  E  E   E  E  E  E   E     E  E  E   E  E  E  E  E   
----------------------------|---------------------------|
--------7--10--------7--10--|---------------------------|
--8--8---------8--8---------|--------7--10--------------|
----------------------------|--8--8---------6--6--6--6--|


  E  E  E  E  E  E  E  E     E  E  E   E  E  E  E   E   
--------------------------|----------------------------|
--------------------------|---------------------7--10--|
--------------------------|--------7--10--8--8---------|
-----3--3--3--3--3--3--3--|--8--8----------------------|


  E  E  E   E  E  E  E   E     E  E  E   E  E  E  E   E   
----------------------------|----------------------------|
---------------------7--10--|---------------------7--10--|
--------7--10--8--8---------|--------7--10--8--8---------|
--8--8----------------------|--8--8----------------------|


  E  E  E   E  E  E  E   E     E  E  E   E  E  E  E   E   
----------------------------|---------------------7--10--|
---------------------7--10--|---------------8--8---------|
--------7--10--8--8---------|--------7--10---------------|
--8--8----------------------|--8--8----------------------|


  E  E  E   E  E  E  E   E     E  E  E   E  E  E  E  E   
----------------------------|---------------------------|
--------7--10--------7--10--|---------------------------|
--8--8---------8--8---------|--------7--10--------5--8--|
----------------------------|--8--8---------6--6--------|


  E  E  E  E  E  E  E  E     E  E  E   E  E  E  E  E   
--------------------------|---------------------------|
--------------------------|---------------------------|
--------------------------|--------7--10--------5--8--|
--8--8--8--8--8--8--8--8--|--8--8---------6--6--------|


  E  E  E  E  E  E  E  E     E  E  E   E  E  E  E  E   
--------------------------|---------------------------|
--------------------------|---------------------------|
--------------------------|--------7--10--------5--8--|
--8--8--8--8--8--8--8--8--|--8--8---------6--6--------|


  E  E  E  E  E  E  E  E     E  E  E   E  E  E  E  E   
--------------------------|---------------------------|
--------------------------|---------------------------|
--------------------------|--------7--10--------5--8--|
--8--8--8--8--8--8--8--8--|--8--8---------6--6--------|


  E  E  E  E  E  E  E  E     E  E  E   E  E  E  E  E   
--------------------------|---------------------------|
--------------------------|---------------------------|
--------------------------|--------7--10--------5--8--|
--8--8--8--8--8--8--8--8--|--8--8---------6--6--------|


  E  E  E  E  E  E  E  E     E  E  E   E  E  E  E  E   
--------------------------|---------------------------|
--------------------------|---------------------------|
--------------------------|--------7--10--------5--8--|
--8--8--8--8--8--8--8--8--|--8--8---------6--6--------|


  E  E  E  E  E  E  E  E     E  E  E   E  E  E  E  E   
--------------------------|---------------------------|
--------------------------|---------------------------|
--------------------------|--------7--10--------5--8--|
--8--8--8--8--8--8--8--8--|--8--8---------6--6--------|


  E  E  E  E  E  E  E  E     E  E  E   E  E  E  E  E   
--------------------------|---------------------------|
--------------------------|---------------------------|
--------------------------|--------7--10--------5--8--|
--8--8--8--8--8--8--8--8--|--8--8---------6--6--------|


  E  E  E  E  E  E  E  E                                                   
--------------------------|-------|-------|-------|-------|-------|-------|
--------------------------|-------|-------|-------|-------|-------|-------|
--------------------------|-------|-------|-------|-------|-------|-------|
--8--8--8--8--8--8--8--8--|-------|-------|-------|-------|-------|-------|


-------|-------|-------|-------||
-------|-------|-------|-------||
-------|-------|-------|-------||
-------|-------|-------|-------||




Duration Legend
---------------
W - whole
H - half
Q - quarter
E - 8th
S - 16th
T - 32nd
X - 64th
. - note dotted
|-n-|  - n-tuplets


Tablature Legend
----------------
L - tied note
x - dead note
g - grace note
(n) - ghost note
> - accentuded note
NH - natural harmonic
AH - artificial harmonic
TH - tapped harmonic
SH - semi harmonic
PH - pitch harmonic
h - hammer on
p - pull off
b - bend
br - bendRelease
pb - preBend
pbr - preBendRelease
brb - bendReleaseBend
\n/ - tremolo bar dip
\n - tremolo bar dive
-/n - tremolo bar Release up
/n\ - tremolo bar inverted dip
/n - tremolo bar return
-\n - tremolo bar Release down
S - shift slide
s - legato slide
/ -  slide into from below or out of upwards
\ -  slide into from above or out of downwards
~ - vibrato
W - wide vibrato
tr - trill
TP - tremolo picking
T - tapping
S - slap
P - pop
< - fade in
^ - brush up
v - brush down
Suggest correction
Give kudos to tab author, rate the tab!
1 2 3 4 5
comments
print report bad tab
guest
You may want to rate the tab now too:
select rating
Wanna post a correction for this tab? Suggest correction