Oops, an error
Loading. Please wait.

Heartache Tonight Tab

version 1
version 1

Whole song

Interactive

38,222 views 39 this week
2 commentsread comments
1 2 3 4 5
x 7
add to favorites
launch autoscroll
font size
0
reset
how to read this tab
guitar tuner
×
Best way to learn
"Heartache Tonight"
Autoscroll
slow
fast
+/-
esc
set tempo
stop
tabbed by james pugrad and corbin ellis.


                          HEARTACHE TONIGHT

e|-------------|
B|-------------|
G|-3-----5-----|
D|-3-3-3-5-4s5-|
A|-1-3-3-3-4s5-|
E|---1-1---2s3-|

some body gonna hurt some one befor the night is through
somebody gonna come undone theres nothing we can do

D-4s5-
A-4s5- do this slide pART AFTER the end of the sentance just listen to the
E-2s3- song

every body wants to touch somebody if it takes all night
everbody wants to take a little tanch make it come out right

e|-------------------------------------------|
B|-------------------------------------------|
G|-----10s8-10--(10)s---10s8s10s8------------|
D|-(9)-10s8-10--(10)s-------------10--10s----|
A|----------10--(10)s------------------------|
E|-------------------------------------------|

e|-----------------------------------------|
B|-----------------------------------------|
G|-----------------------------------------|
D|-5-7--8--7--5--7--8--7-------------------|
A|--3--3--3--3--3--3--3--3------5--7--8--7-|
E|-----------------------------3--3--3--3--|

theres gonna be a heartache tonight a heart ache tonight i know

e|---15---15-15~~~~----15-------------|
B|-15--15-----------15----------------|
G|--------------------------------15--|
D|-----------------------------15-----|
A|------------------------------------|
E|------------------------------------|

some people like to stay out but some falks cant hold out that long

e|-------------------------------------------------------------------|
B|-------------------------------------------------------------------|
G|-------------------------------------------------------------------|
D|--------------1s2-----2-x-----------------1s2-----2-x--------------|
A|-5-5-5-5-5-5--1s2-2-2-2-x-4s5-5-5-5-5-5-x-1s2-2-2-2-x-4s-5-5-5-5-5-|
E|-3-3-3-3-3-3------0-0-0-x-2s3-3-3-3-3-3-x-----0-0-0-x-2s-3-3-3-3-3-|

e|------------------------|
B|------------------------|
G|------------------5-----|
D|----4s-5-5-x------5-----|
A|-s7-2s-3-3-x-x----3--4s-|
E|---------------------2s-|

but nobody wants to go home now theres to much going on

e|-10---------------------10------------|
B|---8----------------------8-----------|
G|-----10---------------------10-----10-|
D|--------10-10-------------------10-10-|
A|--------------------------------------|
E|--------------------------------------|

 this night is gonna last forever last all last all summer long

e|-----------------------0----0---------------------------|
B|-----------------------0----0---------------------------|
G|------------------------------------------------------3-|
D|-------------------------2----------------------------1-|
A|-5-5-5-5-5-5-x-5------------------4s5-5-x--5--5-x-------|
E|-3-3-3-3-3-3-x-3------------------2s3-3-x--3--3-x-------|

sometime before the sun comes up

e|-----------------------------------------------|
B|----5----5-------------------------------------|
G|----4----4-------------------------------5-----|
D|-4--------------------------4-5-5-7------5-x---|
A|-2----2-------4s5-5-5-5-5-x-2-3-3-3--3---5-x-4-|
E|--------------2s3-3-3-3-3-x------------------2-|

the radio is gonna play that song

e|----10----10-------------------------|
B|---------------------10--------------|
G|-10----10-------9-10-----------------|
D|------------------------10--10s8-----|
A|-------------------------------------|
E|-------------------------------------|

theres gonna be a heartache tonight a heart ache tonight i know

e|-(3)-3s1-3-3~~x--------------------|
B|---------3-----------6---8s12------|
G|------------------------------10-8-|
D|---------------------------------8-|
A|---------------------------------6-|
E|-----------------------------------|

theres gonna be a heart ache tonight the moon shinin bright so turn out the light an 
get it right theres gonna be a heart ache tonight a heartache to night i know  HEARTACHE BABY

e|----------------------------------15----15---------15----15-15~~-|
B|---10-10-------10-10-10s-----------------------------------------|
G|---10-10-------10-10-10s-14---15-----15----x-14-15----15---------|
D|---10-10-------10-10-10s-----------------------------------------|
A|-10--------------------------------------------------------------|
E|-10-------10-----------------------------------------------------|

e|------------------------15---------------------------------------|
B|-11s10-8-10s8----8---15----14s15---------------------15-14-13----|
G|---------------8-----15----14s15--15---s15s----------15-14-13-15-|
D|----------------------------------15-----------15-15----------15-|
A|-----------------------------------------------15-15-------------|
E|-----------------------------------------------------------------|

e|-----------------| ok i let you know where you guys are at in the song
B|----15-14-13-----|
G|-15-15-14-13-15s-|
D|-15----------15s-| he says heart ache baby and then the solo
A|-----------------|
E|-----------------|

[Solo]
e|----------------15--------x(0)-------------------15--15--15--15-|
B|-13--13--13-15s-15--------x(0)-------6-6-6-6--15---15--15--15---|
G|---15--14---15s-15-13s15------13(13)---------x------------------|
D|----------------------------------------------------------------|
A|----------------------------------------------------------------|
E|----------------------------------------------------------------|

e|-(0)-------------------------------------------------------10----------|
B|-(0)--18--18s(0)s11s0-----------------------13--13---------------------|
G|----18--18------------11---6--6-6----8-8s13---13--13s8s10-----10-(10---|s
D|------------------------xs--6-----6------------------------------------|
A|-----------------------------------------------------------------------|
E|-----------------------------------------------------------------------|

e|-------------------8~~~~--------------------------------5-------10~~~~--|
B|-----------8s6------------18---18----------------8----------------------|
G|-8--(8)s-------6s-----------18----16s15-----15s--8--4s5---9s10----------|
D|-8--(8)s---------------------------------15-15s--8----------------------|
A|------------------------------------------------------------------------|
E|------------------------------------------------------------------------|

 then he starts singing while hes singing play the solo below
e|---15-------------------15-----------8--8------------------------------|
B|------15------------------15------------8---------------15-------------|
G|-15---------15-x-14s15-------15s6s8-------13s11---13s15---15------15s8-|
D|------------------------------------------------12----------15-15-15s8-|
A|---------------------------------------------------------------15------|
E|-----------------------------------------------------------------------|

e|-----------------------------------------15---------------------------|
B|-------------------------8-8-8-8-8-8--------15------------------------|
G|-(8)s15-15-14-13-15-(15)-8-8-8-8-8-8--15-------15s--13-13s15-13s15-15-|
D|-(8)s15-15-14-13-15-(15)-8-8-8-8-8-8-----------15sx-13-13s15-13s15-15-|
A|----------------------------------------------------------------------|
E|----------------------------------------------------------------------|

 end solo
e|--------------------------------------------------------------------|
B|--10s-10s-10s11s13s15----------------------18---18--18-----15-------|
G|----------------------------------------18---18---18----15---15--15-|
D|----------------------13-13-13-13s15-15-----------------------------|
A|--------------------------------------------------------------------|
E|--------------------------------------------------------------------|

e|-18----------18-------------------------------------------------|
B|----20s18----------------------15s13------(3)s----------------3-|
G|---------18-----18s16s15-------------15---(3)s-13s(13)-8(8)s--3-|
D|--------------------15-15--------------15-(3)s-13s(13)-8(8)s--3-|
A|-----------------------------------------------13s(13)-8(8)s--3-|
E|-------------------------------------------3-s-13s(13)-8(8)s--3-|

a hard song to learn but when you get it and all the solos down its so fun to play have 
it souldd ownly take you 3 days to learn the full song or what i tabed

************************************

| (n)  Ghost note
| ~    Vibrato
| x    Dead note
| s    Slide

************************************
Suggest correction
comments
print report bad tab
2 comments total.
+1 reply
FoolOnThePlanet 270 Oct 15, 2006 06:12 AM

Doesn't sound right.

0 reply
chocobo_druid 10 Oct 15, 2006 02:15 PM

your a freakin idiot this i correct *5STARS*

guest
You may want to rate the tab now too:
select rating
Wanna post a correction for this tab? Suggest correction