Oops, an error
Loading. Please wait.

Hotel California Tab

version 2
version 2

Acoustic

Video

784 views 39 this week
no commentswrite comment
1 2 3 4 5
3 more votes to show rating
add to favorites
launch autoscroll
font size
0
reset
how to read this tab
guitar tuner
Autoscroll
slow
fast
+/-
esc
set tempo
stop
Help us to improve Ultimate-Guitar.com Take our survey!
×
Author
Difficulty
Capo
novice
2nd fret
About this tab version
Very comfortable to play, beginners version. Was this info helpful? Yes No
HOTEL CALIFORNIA
The Eagles


Arranged for acoustic guitar 
by Sateliteblues

This version is easy to play but in my opinion sounds great! 


Capo on 2nd fret.

 
[Verse 1]

  Am                      E7              G                 D
E|--------------0-------|-----------0---|------------3----|----------2-----5---|
B|--------1--------0h1--|-------0-------|-------3-------3-|-------3------------|
G|------2---------------|-----1---------|-----0---0-------|----2--------2--2---|
D|----2-------2---------|---0-----0-----|---0-------------|-0------------------|
A|-0--------------------|-2-------------|-----------------|--------------------|
E|----------------------|---------------|-3---------------|--------------------|

   F                      C                  Dm                E
E|-------1---1----------|------------0----|----------1---5---|-----------0--|
B|-----1------------ 1--|--------1-----1--|-------3--------3-|-------0------|
G|---2-----2----0h2-----|------0---0------|-----2------2-----|-----1--------|
D|-3----------3---------|----2------------|--0---------------|---2-----2----|
A|----------------------|-3---------------|------------------|-2------------|
E|----------------------|-----------------|------------------|--------------|


[Verse 2]

Am                         E7
On a dark desert highway, cool wind in my hair
G                     D               
Warm smell of colitas rising up through the air
F                         C
Up ahead in the distance, I saw a shimmering light
Dm
My head grew heavy and my sight grew dim
E
I had to stop for the night


(...)

[Chorus]

   F                          C                   E7
E|-------1------------------|--------------0----|--------------0----------|
B|-----1---1-------------1--|--------1-------1--|-------0--------0--------|
G|---2-------2------0h2-----|------0---0--------|-----1---1--------1---1--|
D|-3-----------3--3---------|----2-------2------|---0-------0--------0----|
A|--------------------------|-3-----------------|-2-----------------------|
E|--------------------------|-------------------|-------------------------|

  Am                                    F                          C
E|------------------------------------|-------1------------------|--------------0-----|
B|--------1---------1--------1--------|-----1---1-------------1--|--------1-------1---|
G|------2---------2--------2----------|---2-------2------0h2-----|------0---0-------0-|
D|----2---------0--------0-----0h2----|-3-----------3--3---------|----2-------2-------|
A|-0----------2--------3--------------|--------------------------|-3------------------|
E|------------------------------------|--------------------------|--------------------|

    Dm                           E7
E|----------1-----1------------|-------------0--|
B|-------3----------3-------3--|-------0--------|
G|-----2------2-------2--------|-----1---1------|
D|--0-----------0-------0------|---2-------2----|
A|-----------------------------|-2--------------|
E|-----------------------------|----------------|


[Chorus]

F                         C
 Welcome to the Hotel California.
E7                   Am
Such a lovely place, such a lovely face
F                                      C
There's Plenty of room at the Hotel California
     Dm                          E
Anytime of year,(anytime of year) You can find us here...


(...)



************************************

| h  Hammer-on

************************************
Suggest correction
Give kudos to tab author, rate the tab!
1 2 3 4 5
comments
print report bad tab
guest
You may want to rate the tab now too:
select rating
Wanna post a correction for this tab? Suggest correction