Oops, an error
Loading. Please wait.
We have an official Hotel California tab made by UG professional guitarists. Check out the tab »
×

Hotel California Tab

version 2
version 2

Whole song

by Eagles
180,620 views 807 this week
24 commentsread comments
1 2 3 4 5
x 57
add to favorites
×
Save as Personal and add changes to this tab that will be seen only by you. Learn more ›
×
You can save this tab as Personal to edit and correct it or add notes. All changes will be seen only by you. Learn more »
save as personal
new!
launch autoscroll
font size
0
reset
how to read this tab
guitar tuner
backing track
0:00
0:00
Autoscroll
slow
fast
+/-
esc
set tempo
stop
Author
Band - The Eagles
Song - Hotel California (Live Version)

Tuning: Standard
                (Guitar 1) - Acoustic, 12-string
                (Guitar 2) - Electric
                (Guitar 3) - Acoustic, 6-string 


                                (Guitar 1)
e|------9-------------------------------|------x---------------------------|
B|-----7--------------------------------|-----10---------------------------|
G|----7---------------------------------|----9-----------------------------|
D|---7----------------------------------|---11-----------------------------|
A|--9-----------------------------------|--12------------------------------|
E|-7------------------------------------|-9--------------------------------|

                                    (Guitar 2)
e|--------------------------------------|----------------------------------|
B|----------------2-3-5-7-7/8\7-5/7~~~~-|---------3-2----------------------|
G|---4-4h6p4p3-4------------------------|----2-4------0-2-2h4-2------------|
D|--------------------------------------|------------------------4\2-------|
A|--------------------------------------|----------------------------5/7---|
E|--------------------------------------|----------------------------------|

                                    (Guitar 3)
e|--------------------------------------|----------------------------------|
B|--------------------------------------|----------------------------------|
G|--------------------------------------|----------------------------------|
D|--------------------------------------|----------------------------------|
A|--------------------------------------|----------------------------------|
E|--------------------------------------|----------------------------------|

                                (Guitar 1)
e|------7---------------------|-------------|-------------------------2----|
B|-----8----------------------|-------------|-------------------------2----|
G|----9-----------------------|-------------|-------------------------3----|
D|---9------------------------|-------------|----------------2-------------|
A|--7-------------------------|-------------|--------------4---------------|
E|-7--------------------------|-------------|------------2-----------------|

                                 (Guitar 2)
e|------0------0------0------0|---7p0--10p0-|----7-6-7-9-10-9-10-12/14-14~~|
B|-----0------0------0------0-|--8----8-----|--8---------------------------|
G|----0------2------4------7--|-9----9------|9-----------------------------|
D|---2------4------5------9---|-------------|------------------------------|
A|----------------------------|-------------|------------------------------|
E|----------------------------|-------------|------------------------------|

                                 (Guitar 3)
e|----------------------------|-------------|------------------------------|
B|----------------------------|-------------|------------------------------|
G|----------------------------|-------------|------------------------------|
D|----------------------------|-------------|------------------------------|
A|----------------------------|-------------|------------------------------|
E|----------------------------|-------------|------------------------------|

                                (Guitar 1)
e|------9--------------------|--------------|--------X---------------------|
B|-----7---------------------|--------------|-------10---------------------|
G|----7----------------------|--------------|------9-----------------------|
D|---7-----------------------|--------------|-----11-----------------------|
A|--9------------------------|--------------|----12------------------------|
E|-7-------------------------|--------------|---9--------------------------|

                                 (Guitar 2)
e|-----2h3p2---2-2---2-------|--------------|------------------------------|
B|-----------5-----5---3-----|-5p3---3------|----------3p2---2--2----------|
G|---4-----------------------|-----4---2/4~~|~-----2-4-----4------2--4-~~--|
D|---------------------------|--------------|------------------------- ----|
A|---------------------------|--------------|------------------------------|
E|---------------------------|--------------|------------------------------|

                                 (Guitar 3)
e|---------------------------|--------------|------------------------------|
B|---------------------------|--------------|------------------------------|
G|---------------------------|--------------|------------------------------|
D|---------------------------|--------------|------------------------------|
A|---------------------------|--------------|------------------------------|
E|---------------------------|--------------|------------------------------|

                                (Guitar 1)
e|------------------------------------|-------7----------------------------|
B|------------------------------------|------8-----------------------------|
G|------------------------------------|-----9------------------------------|
D|------------------------------------|----9-------------------------------|
A|------------------------------------|---7--------------------------------|
E|------------------------------------|--7---------------------------------|

                                 (Guitar 2)
e|--------------------7--9-10-9-10----|--12\----------0--------0--------0--|
B|--------5-8--7-7-8h10---------------|-------------0--------0--------0----|
G|----6-7-----------------------------|-----------0--------2--------4------|
D|------------------------------------|--------2--------4--------5---------|
A|------------------------------------|------------------------------------|
E|------------------------------------|------------------------------------|

                                 (Guitar 3)
e|------------------------------------|------------------------------------|
B|------------------------------------|------------------------------------|
G|------------------------------------|------------------------------------|
D|------------------------------------|------------------------------------|
A|------------------------------------|------------------------------------|
E|------------------------------------|------------------------------------|

                                (Guitar 1)
e|---------------------------------|--------2------------------------------|
B|---------------------------------|-------2-------------------------------|
G|---------------------------------|------3--------------------------------|
D|---------------------------------|-----2---------------------------------|
A|---------------------------------|----4----------------------------------|
E|---------------------------------|---2-----------------------------------|

                                 (Guitar 2)
e|----------0-7p0---10-12-10-------|-----9-9h10p9\7-7h9p7\6--3-2-2--2-3-2--|
B|--------0-------0----------12----|---------------------------------------|
G|------7--------------------------|---------------------------------------|
D|----9----------------------------|---------------------------------------|
A|---------------------------------|---------------------------------------|
E|---------------------------------|---------------------------------------|

                                 (Guitar 3)
e|---------------------------------|---------------------------------------|
B|---------------------------------|---------------------------------------|
G|---------------------------------|---------------------------------------|
D|---------------------------------|---------------------------------------|
A|---------------------------------|---------------------------------------|
E|---------------------------------|---------------------------------------|

    (Guitar 1)
e|--------------|
B|--------------|
G|--------------|
D|--------------|
A|--------------|
E|--------------|

    (Guitar 2)
e|-0-2----------|
B|-----3--2-----|
G|----------4-3-|
D|--------------|
A|--------------|
E|--------------|

    (Guitar 3)
e|--------------|
B|--------------|
G|--------------|
D|--------------|
A|--------------|
E|--------------|

Note: now 12-strign acoustic guitar with capo on the7th freet.

                            (Guitar 1)
e|-----------0-----|-------2-----|-------0-------|-----------0-|
B|-------0---------|-----0---2-4-|-----3-----3---|-------0-----|
G|-----0---0---0-2-|---2---------|---2-----2---2-|-----0---0---|
D|---2-------------|-1-----------|-0-------------|---2---------|
A|-----------------|-------------|---------------|-4-----------|
E|-0---------------|-------------|---------------|-------------|

                             (Guitar 2)
e|-2---------------|-2-----------|-0-------------|-0-----------|
B|-3---------------|-2-----------|-2-------------|-0-----------|
G|-4---------------|-3-----------|-2-------------|-1-----------|
D|-4---------------|-4-----------|-2-------------|-2-----------|
A|-2---------------|-4-----------|-0-------------|-2-----------|
E|-2---------------|-2-----------|-0-------------|-0-----------|

                             (Guitar 3)
e|-2---------------|-2-----------|-0-------------|-0-----------|
B|-3---------------|-2-----------|-2-------------|-0-----------|
G|-4---------------|-3-----------|-2-------------|-1-----------|
D|-4---------------|-4-----------|-2-------------|-2-----------|
A|-2---------------|-4-----------|-0-------------|-2-----------|
E|-2---------------|-2-----------|-0-------------|-0-----------|

                                (Guitar 1)
e|-----------0-------|-------3-------|-----------0---|-----------2-|
B|-------1-----------|-----0-----0---|-------1-------|-------0-----|
G|-----0-----------0-|---0-----0-----|-----0---0-----|---0-2---2---|
D|---2-----2---0h2---|---------------|---2-----------|-------------|
A|-3-----------------|-2-------------|-0-------------|-2-----------|
E|-------------------|-------------3-|-------------0-|-------------|

                                 (Guitar 2)
e|-3-----------------|-2-------------|-0-------------|-2-----------|
B|-0-----------------|-3-------------|-0-------------|-2-----------|
G|-0-----------------|-2-------------|-0-------------|-3-----------|
D|-0-----------------|-0-------------|-2-------------|-4-----------|
A|-2-----------------|-0-------------|-2-------------|-4-----------|
E|-3-----------------|-2-------------|-0-------------|-2-----------|

                                 (Guitar 3)
e|-3-----------------|-2-------------|-0-------------|-2-----------|
B|-0-----------------|-3-------------|-0-------------|-2-----------|
G|-0-----------------|-2-------------|-0-------------|-3-----------|
D|-0-----------------|-0-------------|-2-------------|-4-----------|
A|-2-----------------|-0-------------|-2-------------|-4-----------|
E|-3-----------------|-2-------------|-0-------------|-2-----------|

                            (Guitar 1)
e|-----------0-----|-------2-----|-------0-------|-----------0-|
B|-------0---------|-----0---2-4-|-----3-----3---|-------0-----|
G|-----0---0---0-2-|---2---------|---2-----2---2-|-----0---0---|
D|---2-------------|-1-----------|-0-------------|---2---------|
A|-----------------|-------------|---------------|-4-----------|
E|-0---------------|-------------|---------------|-------------|

                             (Guitar 2)
e|-----------------|-------------|---------------|-------------|
B|-----------------|-------------|---------------|-------------|
G|-----------------|-------------|---------------|-------------|
D|------0----2--4--|-2--0h2p0----|---------------|-------------|
A|-----------------|-----------4-|-4~~~---5---7\-|2~~~~--------|
E|-----------------|-------------|---------------|-------------|

                             (Guitar 3)
e|-2---------------|-2-----------|-0-------------|-0-----------|
B|-3---------------|-2-----------|-2-------------|-0-----------|
G|-4---------------|-3-----------|-2-------------|-1-----------|
D|-4---------------|-4-----------|-2-------------|-2-----------|
A|-2---------------|-4-----------|-0-------------|-2-----------|
E|-2---------------|-2-----------|-0-------------|-0-----------|

                                (Guitar 1)
e|-----------0-------|-------3-------|-----------0---|-----------2-|
B|-------1-----------|-----0-----0---|-------1-------|-------0-----|
G|-----0-----------0-|---0-----0-----|-----0---0-----|---0-2---2---|
D|---2-----2---0h2---|---------------|---2-----------|-------------|
A|-3-----------------|-2-------------|-0-------------|-2-----------|
E|-------------------|-------------3-|-------------0-|-------------|

                                 (Guitar 2)
e|-------------------|---------------|---------------|-------------|
B|-------------------|------2p4--0---|-2----4---5----|-4h5p4p2-4---|
G|-2----4---------5\-|0--------------|---------------|-------------|
D|-------------------|---------------|---------------|-------------|
A|-------------------|---------------|---------------|-------------|
E|-------------------|---------------|---------------|-------------|

                                 (Guitar 3)
e|-3-----------------|-2-------------|-0-------------|-2-----------|
B|-0-----------------|-3-------------|-0-------------|-2-----------|
G|-0-----------------|-2-------------|-0-------------|-3-----------|
D|-0-----------------|-0-------------|-2-------------|-4-----------|
A|-2-----------------|-0-------------|-2-------------|-4-----------|
E|-3-----------------|-2-------------|-0-------------|-2-----------|

                            (Guitar 1)
e|-----------0-----|-------2-----|-------0-------|-----------0-|
B|-------0---------|-----0---2-4-|-----3-----3---|-------0-----|
G|-----0---0---0-2-|---2---------|---2-----2---2-|-----0---0---|
D|---2-------------|-1-----------|-0-------------|---2---------|
A|-----------------|-------------|---------------|-4-----------|
E|-0---------------|-------------|---------------|-------------|

                             (Guitar 2)
e|-2---------------|-2-----------|-0-------------|-0-----------|
B|-3---------------|-2-----------|-2-------------|-0-----------|
G|-4---------------|-3-----------|-2-------------|-1-----------|
D|-4---------------|-4-----------|-2-------------|-2-----------|
A|-2---------------|-4-----------|-0-------------|-2-----------|
E|-2---------------|-2-----------|-0-------------|-0-----------|

                             (Guitar 3)
e|-2---------------|-2-----------|-0-------------|-0-----------|
B|-3---------------|-2-----------|-2-------------|-0-----------|
G|-4---------------|-3-----------|-2-------------|-1-----------|
D|-4---------------|-4-----------|-2-------------|-2-----------|
A|-2---------------|-4-----------|-0-------------|-2-----------|
E|-2---------------|-2-----------|-0-------------|-0-----------|

                                (Guitar 1)
e|-----------0-------|-------3-------|-----------0---|-----------2-|
B|-------1-----------|-----0-----0---|-------1-------|-------0-----|
G|-----0-----------0-|---0-----0-----|-----0---0-----|---0-2---2---|
D|---2-----2---0h2---|---------------|---2-----------|-------------|
A|-3-----------------|-2-------------|-0-------------|-2-----------|
E|-------------------|-------------3-|-------------0-|-------------|

                                 (Guitar 2)
e|-3-----------------|-2-------------|-0-------------|-2-----------|
B|-0-----------------|-3-------------|-0-------------|-2-----------|
G|-0-----------------|-2-------------|-0-------------|-3-----------|
D|-0-----------------|-0-------------|-2-------------|-4-----------|
A|-2-----------------|-0-------------|-2-------------|-4-----------|
E|-3-----------------|-2-------------|-0-------------|-2-----------|

                                 (Guitar 3)
e|-3-----------------|-2-------------|-0-------------|-2-----------|
B|-0-----------------|-3-------------|-0-------------|-2-----------|
G|-0-----------------|-2-------------|-0-------------|-3-----------|
D|-0-----------------|-0-------------|-2-------------|-4-----------|
A|-2-----------------|-0-------------|-2-------------|-4-----------|
E|-3-----------------|-2-------------|-0-------------|-2-----------|

                            (Guitar 1)
e|-----------0-----|-------2-----|-------0-------|-----------0-|
B|-------0---------|-----0---2-4-|-----3-----3---|-------0-----|
G|-----0---0---0-2-|---2---------|---2-----2---2-|-----0---0---|
D|---2-------------|-1-----------|-0-------------|---2---------|
A|-----------------|-------------|---------------|-4-----------|
E|-0---------------|-------------|---------------|-------------|

                             (Guitar 2)
e|-2---------------|-2-----------|-0-------------|-0-----------|
B|-3---------------|-2-----------|-2-------------|-0-----------|
G|-4---------------|-3-----------|-2-------------|-1-----------|
D|-4---------------|-4-----------|-2-------------|-2-----------|
A|-2---------------|-4-----------|-0-------------|-2-----------|
E|-2---------------|-2-----------|-0-------------|-0-----------|

                             (Guitar 3)
e|-2---------------|-2-----------|-0-------------|-0-----------|
B|-3---------------|-2-----------|-2-------------|-0-----------|
G|-4---------------|-3-----------|-2-------------|-1-----------|
D|-4---------------|-4-----------|-2-------------|-2-----------|
A|-2---------------|-4-----------|-0-------------|-2-----------|
E|-2---------------|-2-----------|-0-------------|-0-----------|

                                (Guitar 1)
e|-----------0-------|-------3-------|-----------0---|-----------2-|
B|-------1-----------|-----0-----0---|-------1-------|-------0-----|
G|-----0-----------0-|---0-----0-----|-----0---0-----|---0-2---2---|
D|---2-----2---0h2---|---------------|---2-----------|-------------|
A|-3-----------------|-2-------------|-0-------------|-2-----------|
E|-------------------|-------------3-|-------------0-|-------------|

                                 (Guitar 2)
e|-3-----------------|-2-------------|-0-------------|-2-----------|
B|-0-----------------|-3-------------|-0-------------|-2-----------|
G|-0-----------------|-2-------------|-0-------------|-3-----------|
D|-0-----------------|-0-------------|-2-------------|-4-----------|
A|-2-----------------|-0-------------|-2-------------|-4-----1-2-4-|
E|-3-----------------|-2-------------|-0-------------|-2---2-------|

                                 (Guitar 3)
e|-3-----------------|-2-------------|-0-------------|-2-----------|
B|-0-----------------|-3-------------|-0-------------|-2-----------|
G|-0-----------------|-2-------------|-0-------------|-3-----------|
D|-0-----------------|-0-------------|-2-------------|-4-----------|
A|-2-----------------|-0-------------|-2-------------|-4-----------|
E|-3-----------------|-2-------------|-0-------------|-2-----------|

                                (Guitar 1)
e|-2-----------------|-3--------------|-2-----------|-0------------|
B|-1-----------------|-0--------------|-0-----------|-0------------|
G|-0-----------------|-0--------------|-2-----------|-0------------|
D|-2-----------------|-0--------------|-0-----------|-2------------|
A|-3-----------------|-2--------------|-2-----------|-2------------|
E|-0-----------------|-3--------------|-------------|-0------------|

                                 (Guitar 2)
e|-------------------|----------------|-------------|--------------|
B|-------------------|-3-3-3-3--------|-------------|--------------|
G|-0-(let ring)------|-2-2-4-2-/6-4-2-|-------------|-0-(let ring)-|
D|-0-(let ring)------|---------/7-5-4-|-------0-2-4-|--------------|
A|-------------------|----------------|---2-4-------|--------------|
E|-------------------|----------------|-------------|--------------|

                                 (Guitar 3)
e|-3-----------------|-2--------------|-2-----------|-2------------|
B|-0-----------------|-3--------------|-2-----------|-3------------|
G|-0-----------------|-2--------------|-3-----------|-4------------|
D|-0-----------------|-0--------------|-4-----------|-4------------|
A|-2-----------------|-0--------------|-4-----------|-2------------|
E|-3-----------------|-2--------------|-2-----------|-2------------|

                                (Guitar 1)
e|-2-----------------|-3--------------------|-2-----------|-0------|
B|-1-----------------|-0--------------------|-0-----------|-0------|
G|-0-----------------|-0--------------------|-2-----------|-0------|
D|-2-----------------|-0--------------------|-0-----------|-2------|
A|-3-----------------|-2--------------------|-2-----------|-2------|
E|-0-----------------|-3--------------------|-------------|-0------|

                                 (Guitar 2)
e|-------------------|-9--9-\7-7-7-7\5-5-5\-|-------------|-2------|
B|-------------------|-10-10\8-8-8-8\7-7-7\-|-------------|-2------|
G|-------------------|----------------------|-------------|-3------|
D|-------------------|----------------------|-------------|-4------|
A|-------------------|----------------------|-------------|-4------|
E|-------------------|----------------------|-------------|-2------|

                                 (Guitar 3)
e|-3-----------------|-2--------------------|-0-----------|-2------|
B|-0-----------------|-3--------------------|-0-----------|-2------|
G|-0-----------------|-2--------------------|-0-----------|-3------|
D|-0-----------------|-0--------------------|-2-----------|-4------|
A|-2-----------------|-0--------------------|-2-----------|-4------|
E|-3-----------------|-2--------------------|-0-----------|-2------|

                            (Guitar 1)
e|-----------0-----|-------2-----|-------0-------|-----------0-|
B|-------0---------|-----0---2-4-|-----3-----3---|-------0-----|
G|-----0---0---0-2-|---2---------|---2-----2---2-|-----0---0---|
D|---2-------------|-1-----------|-0-------------|---2---------|
A|-----------------|-------------|---------------|-4-----------|
E|-0---------------|-------------|---------------|-------------|

                             (Guitar 2)
e|-2---------------|-2-----------|-0-------------|-0-----------|
B|-3---------------|-2-----------|-2-------------|-0-----------|
G|-4---------------|-3-----------|-2-------------|-1-----------|
D|-4---------------|-4-----------|-2-------------|-2-----------|
A|-2---------------|-4-----------|-0-------------|-2-----------|
E|-2---------------|-2-----------|-0-------------|-0-----------|

                             (Guitar 3)
e|-2---------------|-2-----------|-0-------------|-0-----------|
B|-3---------------|-2-----------|-2-------------|-0-----------|
G|-4---------------|-3-----------|-2-------------|-1-----------|
D|-4---------------|-4-----------|-2-------------|-2-----------|
A|-2---------------|-4-----------|-0-------------|-2-----------|
E|-2---------------|-2-----------|-0-------------|-0-----------|

                                (Guitar 1)
e|-----------0-------|-------3-------|-----------0---|-----------2-|
B|-------1-----------|-----0-----0---|-------1-------|-------0-----|
G|-----0-----------0-|---0-----0-----|-----0---0-----|---0-2---2---|
D|---2-----2---0h2---|---------------|---2-----------|-------------|
A|-3-----------------|-2-------------|-0-------------|-2-----------|
E|-------------------|-------------3-|-------------0-|-------------|

                                 (Guitar 2)
e|-3-----------------|-2-------------|-0-------------|-2-----------|
B|-0-----------------|-3-------------|-0-------------|-2-----------|
G|-0-----------------|-2-------------|-0-------------|-3-----------|
D|-0-----------------|-0-------------|-2-------------|-4-----------|
A|-2-----------------|-0-------------|-2-------------|-4-----------|
E|-3-----------------|-2-------------|-0-------------|-2-----------|

                                 (Guitar 3)
e|-3-----------------|-2-------------|-0-------------|-2-----------|
B|-0-----------------|-3-------------|-0-------------|-2-----------|
G|-0-----------------|-2-------------|-0-------------|-3-----------|
D|-0-----------------|-0-------------|-2-------------|-4-----------|
A|-2-----------------|-0-------------|-2-------------|-4-----------|
E|-3-----------------|-2-------------|-0-------------|-2-----------|

                            (Guitar 1)
e|-----------0-----|-------2-----|-------0-------|-----------0-|
B|-------0---------|-----0---2-4-|-----3-----3---|-------0-----|
G|-----0---0---0-2-|---2---------|---2-----2---2-|-----0---0---|
D|---2-------------|-1-----------|-0-------------|---2---------|
A|-----------------|-------------|---------------|-4-----------|
E|-0---------------|-------------|---------------|-------------|

                             (Guitar 2)
e|-2---------------|-2-----------|-0-------------|-0-----------|
B|-3---------------|-2-----------|-2-------------|-0-----------|
G|-4---------------|-3-----------|-2-------------|-1-----------|
D|-4---------------|-4-----------|-2-------------|-2-----------|
A|-2---------------|-4-----------|-0-------------|-2-----------|
E|-2---------------|-2-----------|-0-------------|-0-----------|

                             (Guitar 3)
e|-2---------------|-2-----------|-0-------------|-0-----------|
B|-3---------------|-2-----------|-2-------------|-0-----------|
G|-4---------------|-3-----------|-2-------------|-1-----------|
D|-4---------------|-4-----------|-2-------------|-2-----------|
A|-2---------------|-4-----------|-0-------------|-2-----------|
E|-2---------------|-2-----------|-0-------------|-0-----------|

                                (Guitar 1)
e|-----------0-------|-------3-------|-----------0---|-----------2-|
B|-------1-----------|-----0-----0---|-------1-------|-------0-----|
G|-----0-----------0-|---0-----0-----|-----0---0-----|---0-2---2---|
D|---2-----2---0h2---|---------------|---2-----------|-------------|
A|-3-----------------|-2-------------|-0-------------|-2-----------|
E|-------------------|-------------3-|-------------0-|-------------|

                                 (Guitar 2)
e|-3-----------------|-2-------------|-0-------------|-2-----------|
B|-0-----------------|-3-------------|-0-------------|-2-----------|
G|-0-----------------|-2-------------|-0-------------|-3-----------|
D|-0-----------------|-0-------------|-2-------------|-4-----------|
A|-2-----------------|-0-------------|-2-------------|-4------1-2-4|
E|-3-----------------|-2-------------|-0-------------|-2----2------|

                                 (Guitar 3)
e|-3-----------------|-2-------------|-0-------------|-2-----------|
B|-0-----------------|-3-------------|-0-------------|-2-----------|
G|-0-----------------|-2-------------|-0-------------|-3-----------|
D|-0-----------------|-0-------------|-2-------------|-4-----------|
A|-2-----------------|-0-------------|-2-------------|-4-----------|
E|-3-----------------|-2-------------|-0-------------|-2-----------|

                                (Guitar 1)
e|-2-----------------|-3-------------------|-2-----------|-0-------|
B|-1-----------------|-0-------------------|-0-----------|-0-------|
G|-0-----------------|-0-------------------|-2-----------|-0-------|
D|-2-----------------|-0-------------------|-0-----------|-2-------|
A|-3-----------------|-2-------------------|-2-----------|-2-------|
E|-0-----------------|-3-------------------|-------------|-0-------|

                                 (Guitar 2)
e|-------------------|-9--9--9-\7-7-7\5-5\-|-------------|---------|
B|-------------------|-10-10-10\8-8-8\7-5\-|-------------|---------|
G|-0-(let ring)------|---------------------|-------------|-0-------|
D|-0-(let ring)------|---------------------|-------0-2-4-|---------|
A|-------------------|---------------------|---2-4-------|---------|
E|-------------------|---------------------|-------------|---------|

                                 (Guitar 3)
e|-3-----------------|-2-------------------|-2-----------|-2-------|
B|-0-----------------|-3-------------------|-2-----------|-3-------|
G|-0-----------------|-2-------------------|-3-----------|-4-------|
D|-0-----------------|-0-------------------|-4-----------|-4-------|
A|-2-----------------|-0-------------------|-4-----------|-2-------|
E|-3-----------------|-2-------------------|-2-----------|-2-------|

                                (Guitar 1)
e|-2-----------------|-3----------------|-2-----------|-0----------|
B|-1-----------------|-0----------------|-0-----------|-0----------|
G|-0-----------------|-0----------------|-2-----------|-0----------|
D|-2-----------------|-0----------------|-0-----------|-2----------|
A|-3-----------------|-2----------------|-2-----------|-2----------|
E|-0-----------------|-3----------------|-------------|-0----------|

                                 (Guitar 2)
e|-------------------|-7-7-7\5-5-5\2----|-------------|-2----------|
B|-------------------|-8-8-8\7-7-7\3-3\-|-------------|-2----------|
G|-------------------|---------------2\-|-------------|-3----------|
D|-------------------|------------------|-------------|-4----------|
A|-------------------|------------------|-------------|-4----------|
E|-------------------|------------------|-------------|-2----------|

                                 (Guitar 3)
e|-3-----------------|-2----------------|-0-----------|-2----------|
B|-0-----------------|-3----------------|-0-----------|-2----------|
G|-0-----------------|-2----------------|-0-----------|-3----------|
D|-0-----------------|-0----------------|-2-----------|-4----------|
A|-2-----------------|-0----------------|-2-----------|-4----------|
E|-3-----------------|-2----------------|-0-----------|-2----------|

                            (Guitar 1)
e|-----------0-----|-------2-----|-------0-------|-----------0-|
B|-------0---------|-----0---2-4-|-----3-----3---|-------0-----|
G|-----0---0---0-2-|---2---------|---2-----2---2-|-----0---0---|
D|---2-------------|-1-----------|-0-------------|---2---------|
A|-----------------|-------------|---------------|-4-----------|
E|-0---------------|-------------|---------------|-------------|

                             (Guitar 2)
e|-2---------------|-2-----------|-0-------------|-0-----------|
B|-3---------------|-2-----------|-2-------------|-0-----------|
G|-4---------------|-3-----------|-2-------------|-1-----------|
D|-4---------------|-4-----------|-2-------------|-2-----------|
A|-2---------------|-4-----------|-0-------------|-2-----------|
E|-2---------------|-2-----------|-0-------------|-0-----------|

                             (Guitar 3)
e|-2---------------|-2-----------|-0-------------|-0-----------|
B|-3---------------|-2-----------|-2-------------|-0-----------|
G|-4---------------|-3-----------|-2-------------|-1-----------|
D|-4---------------|-4-----------|-2-------------|-2-----------|
A|-2---------------|-4-----------|-0-------------|-2-----------|
E|-2---------------|-2-----------|-0-------------|-0-----------|

                                (Guitar 1)
e|-----------0-------|-------3-------|-----------0---|-----------2-|
B|-------1-----------|-----0-----0---|-------1-------|-------0-----|
G|-----0-----------0-|---0-----0-----|-----0---0-----|---0-2---2---|
D|---2-----2---0h2---|---------------|---2-----------|-------------|
A|-3-----------------|-2-------------|-0-------------|-2-----------|
E|-------------------|-------------3-|-------------0-|-------------|

                                 (Guitar 2)
e|-3-----------------|-2-------------|-0-------------|-2-----------|
B|-0-----------------|-3-------------|-0-------------|-2-----------|
G|-0-----------------|-2-------------|-0-------------|-3-----------|
D|-0-----------------|-0-------------|-2-------------|-4-----------|
A|-2-----------------|-0-------------|-2-------------|-4-----------|
E|-3-----------------|-2-------------|-0-------------|-2-----------|

                                 (Guitar 3)
e|-3-----------------|-2-------------|-0-------------|-2-----------|
B|-0-----------------|-3-------------|-0-------------|-2-----------|
G|-0-----------------|-2-------------|-0-------------|-3-----------|
D|-0-----------------|-0-------------|-2-------------|-4-----------|
A|-2-----------------|-0-------------|-2-------------|-4-----------|
E|-3-----------------|-2-------------|-0-------------|-2-----------|

                            (Guitar 1)
e|-----------0-----|-------2-----|-------0-------|-----------0-|
B|-------0---------|-----0---2-4-|-----3-----3---|-------0-----|
G|-----0---0---0-2-|---2---------|---2-----2---2-|-----0---0---|
D|---2-------------|-1-----------|-0-------------|---2---------|
A|-----------------|-------------|---------------|-4-----------|
E|-0---------------|-------------|---------------|-------------|

                             (Guitar 2)
e|-2---------------|-2-----------|-0-------------|-0-----------|
B|-3---------------|-2-----------|-2-------------|-0-----------|
G|-4---------------|-3-----------|-2-------------|-1-----------|
D|-4---------------|-4-----------|-2-------------|-2-----------|
A|-2---------------|-4-----------|-0-------------|-2-----------|
E|-2---------------|-2-----------|-0-------------|-0-----------|

                             (Guitar 3)
e|-2---------------|-2-----------|-0-------------|-0-----------|
B|-3---------------|-2-----------|-2-------------|-0-----------|
G|-4---------------|-3-----------|-2-------------|-1-----------|
D|-4---------------|-4-----------|-2-------------|-2-----------|
A|-2---------------|-4-----------|-0-------------|-2-----------|
E|-2---------------|-2-----------|-0-------------|-0-----------|

                                (Guitar 1)
e|-----------0-------|-------3-------|-----------0---|-----------2-|
B|-------1-----------|-----0-----0---|-------1-------|-------0-----|
G|-----0-----------0-|---0-----0-----|-----0---0-----|---0-2---2---|
D|---2-----2---0h2---|---------------|---2-----------|-------------|
A|-3-----------------|-2-------------|-0-------------|-2-----------|
E|-------------------|-------------3-|-------------0-|-------------|

                                 (Guitar 2)
e|-3-----------------|-2-------------|-0-------------|-2-----------|
B|-0-----------------|-3-------------|-0-------------|-2-----------|
G|-0-----------------|-2-------------|-0-------------|-3-----------|
D|-0-----------------|-0-------------|-2-------------|-4-----------|
A|-2-----------------|-0-------------|-2-------------|-4-----------|
E|-3-----------------|-2-------------|-0-------------|-2-----------|

                                 (Guitar 3)
e|-3-----------------|-2-------------|-0-------------|-2-----------|
B|-0-----------------|-3-------------|-0-------------|-2-----------|
G|-0-----------------|-2-------------|-0-------------|-3---------9-|
D|-0-----------------|-0-------------|-2-------------|-4-----8-6---|
A|-2-----------------|-0-------------|-2-------------|-4-----------|
E|-3-----------------|-2-------------|-0-------------|-2-----------|

                                (Guitar 1)
e|-----------0---------|-------2-------|-----------------0-----------------|
B|-------0-------------|-----0---2-4---|--------------3------------3-------|
G|-----0---0---0-2-----|---2-----------|---------2-----------2---------2---|
D|---2-----------------|-1-------------|----0------------------------------|
A|---------------------|---------------|-----------------------------------|
E|-0-------------------|---------------|-----------------------------------|

                                 (Guitar 2)
e|-2-------------------|-2-------------|-0---------------------------------|
B|-3-------------------|-2-------------|-2---------------------------------|
G|-4-------------------|-3-------------|-2---------------------------------|
D|-4-------------------|-4-------------|-2---------------------------------|
A|-2-------------------|-4-------------|-0---------------------------------|
E|-2-------------------|-2-------------|-0---------------------------------|

                                 (Guitar 3)
e|---------------------|-7-5-3-2--9-10-|-12-12-12-12~12-10-9----10-9-------|
B|---------------------|---------------|---------------------12------12-10-|
G|9--9-9-9-9\7-6-9-7-6-|-7-6-4-3-------|-----------------------------------|
D|---------------------|---------------|-----------------------------------|
A|---------------------|---------------|-----------------------------------|
E|---------------------|---------------|-----------------------------------|

    (Guitar 1)
e|-----------0-|
B|-------0-----|
G|-----0---0---|
D|---2---------|
A|-4-----------|
E|-------------|

    (Guitar 2) |
e|-0-----------|
B|-0-----------|
G|-1-----------|
D|-2-----------|
A|-2-----------|
E|-0-----------|

    (Guitar 3) |
e|-------------|
B|-9-----------|
G|---9---------|
D|-----9-------|
A|-------9h11--|
E|------------2|

                               (Guitar 1)
e|--------------0-----------|-------3-------|-----------------0-----|
B|---------1----------------|-----0-----0---|-----------1-----------|
G|-------0--------------0---|---0-----0-----|--------0-----0--------|
D|----2-------2----0h2------|---------------|-----2-----------------|
A|-3------------------------|-2-------------|--0--------------------|
E|--------------------------|-------------3-|--------------------0--|

                                (Guitar 2)
e|-3------------------------|-2-------------|-0---------------------|
B|-0------------------------|-3-------------|-0---------------------|
G|-0------------------------|-2-------------|-0---------------------|
D|-0------------------------|-0-------------|-2---------------------|
A|-2------------------------|-0-------------|-2---------------------|
E|-3------------------------|-2-------------|-0---------------------|

                                (Guitar 3)
e|--------------------------|---------------|-0------0------0-----0-|
B|--------------------------|---------------|--0------0------0----0-|
G|-----------------------2/4|-2-------4-----|---0------0------0---0-|
D|-----------2-0-4-2-5-4----|------------4--|----2------2------2----|
A|---0-2-5-4----------------|---------------|-----------------------|
E|-3------------------------|---------------|-----------------------|

        (Guitar 1)
e|-----------2-----------|
B|-------0---------------|
G|---0-2---2-------------|
D|-----------------------|
A|-2---------------------|
E|-----------------------|

        (Guitar 2)
e|-----------------------|
B|-----------------------|
G|------------------9-11-|
D|-9h11p9\8-9-11-12------|
A|-----------------------|
E|-----------------------|

        (Guitar 3)
e|---2-----2-2-----------|
B|----2------2-----------|
G|-----3-----------------|
D|------4----4-----------|
A|-------4---------------|
E|-2------2--------------|

                        (Guitar 1)
e|------------0-----------------------------------------|
B|-------0----------------------------------------------|
G|-----0----0----0-2------------------------------------|
D|---2--------------------------------------------------|
A|------------------------------------------------------|
E|-0----------------------------------------------------|

                         (Guitar 2)
e|------------------------------------------------------|
B|------------------------------------------------------|
G|11h12p11\9-11----9--11-11h12p11\9-9h11p9\7-7h9p7\6----|
D|--------------12------------------------------------9-|
A|------------------------------------------------------|
E|------------------------------------------------------|

                         (Guitar 3)
e|-2----------------------------------------------------|
B|-3----------------------------------------------------|
G|-4----------------------------------------------------|
D|-4----------------------------------------------------|
A|-2----------------------------------------------------|
E|-2----------------------------------------------------|

           (Guitar 1)
e|------------2-----------------|
B|---------0-----2--4-----------|
G|-----2------------------------|
D|--1---------------------------|
A|------------------------------|
E|------------------------------|

            (Guitar 2)
e|---------------------14-------|
B|-------12-14-12---11----------|
G|---6-9------------------------|
D|-8-----------------------12\7-|
A|------------------------------|
E|------------------------------|

            (Guitar 2)
e|-2----------------------------|
B|-2----------------------------|
G|-3----------------------------|
D|-4----------------------------|
A|-4----------------------------|
E|-2----------------------------|

                        (Guitar 1)
e|-------0---------------|-----------0------------------|
B|-----3-----3-----------|-------0----------------------|
G|---2-----2---2---------|-----0---0--------------------|
D|-0---------------------|---2--------------------------|
A|-----------------------|-4----------------------------|
E|-----------------------|------------------------------|

                         (Guitar 2)
e|-----------------------|------------------------0-----|
B|-7-7-7-5-5-5-----------|--3-3h5p3\2-2h3p2\0-----------|
G|-------------7-7-6-4-2-|1-------------------2-1-------|
D|-----------------------|--------------------------2-4-|
A|-----------------------|------------------------------|
E|-----------------------|------------------------------|

                         (Guitar 3)
e|-0---------------------|-0----------------------------|
B|-2---------------------|-0----------------------------|
G|-2---------------------|-1----------------------------|
D|-2---------------------|-2----------------------------|
A|-0---------------------|-2----------------------------|
E|-0---------------------|-0----------------------------|

                                   (Guitar 1)
e|--------------0---------------------|-------3-------------------------------|
B|----------1-------------------------|-----0-----0---------------------------|
G|--------0-----------0---------------|---0-----0-----------------------------|
D|------2-----2---0h2-----------------|---------------------------------------|
A|----3-------------------------------|-2-------------------------------------|
E|------------------------------------|-------------3-------------------------|

                                    (Guitar 2)
e|----------------------------------3-|-/5-5-5-5/7-5-3/5----------------------|
B|------------------------------3-5---|-/7-7-7-7/8-7-5/7----------------0h2h3-|
G|--------------2-4-4h6p4\3-4-6-------|-------------------------0h1h2h3-------|
D|----5h7p5\4-5-----------------------|-----------------0h2h3h4---------------|
A|------------------------------------|---------------------------------------|
E|------------------------------------|---------------------------------------|

                                    (Guitar 3)
e|----3-------------------------------|-2-------------------------------------|
B|----0-------------------------------|-3-------------------------------------|
G|----0-------------------------------|-2-------------------------------------|
D|----0-------------------------------|-0-------------------------------------|
A|----2-------------------------------|-0-------------------------------------|
E|----3-------------------------------|-2-------------------------------------|

                                   (Guitar 1)
e|-----------0------------------------|-----------2---------------------------|
B|-------1----------------------------|-------0-------------------------------|
G|-----0---0--------------------------|---0-2---2-----------------------------|
D|---2--------------------------------|---------------------------------------|
A|-0----------------------------------|-2-------------------------------------|
E|-------------0----------------------|---------------------------------------|

                                    (Guitar 2)
e|-0-----3p0---7p3-0-10p7----12p10----|-2-2h3p2\0---0h2-0-------------------0-|
B|---0-------0------------11-------12\|-----------3-------3-2h3p2p0-2-3p2-3---|
G|-----0------------------------------|---------------------------------------|
D|------------------------------------|---------------------------------------|
A|------------------------------------|---------------------------------------|
E|------------------------------------|---------------------------------------|

                                    (Guitar 3)
e|-0----------------------------------|-2-----------------------------7p6-7-9-|
B|-0----------------------------------|-2-------------------------------------|
G|-0----------------------------------|-3-------------------------------------|
D|-2----------------------------------|-4-------------------------------------|
A|-2----------------------------------|-4-------------------------------------|
E|-0----------------------------------|-2-------------------------------------|

                                      (Guitar 1)
e|-----------0-------------------|-------2------------|-------0-------------------|
B|-------0-----------------------|-----0---2-4--------|-----3-----3---------------|
G|-----0---0---0-2---------------|---2----------------|---2-----2---2-------------|
D|---2---------------------------|-1------------------|-0-------------------------|
A|-------------------------------|--------------------|---------------------------|
E|-0-----------------------------|--------------------|---------------------------|

                                       (Guitar 2)
e|-2-----2-----2-----2-----2-----|-0-----0-----0---/6-|-0----0----0----0----0-----|
B|---3-----3-----3-----3-----3---|---2-----2-----2----|---2----2----2----2----2---|
G|-----4-----4-----4-----4-----4-|-----3-----3--------|-----2----2----2----2----2-|
D|-------------------------------|--------------------|---------------------------|
A|-------------------------------|--------------------|---------------------------|
E|-------------------------------|--------------------|---------------------------|

                                       (Guitar 3)
e|-10p7--10p7--10p7--10p7--10p7--|-9p6---9p6---9p6/14-|-9p5--9p5--9p5--9p5--9p5---|
B|-----7-----7-----7-----7-----7-|-----7-----7--------|----5----5----5----5-----5-|
G|-------------------------------|--------------------|---------------------------|
D|-------------------------------|--------------------|---------------------------|
A|-------------------------------|--------------------|---------------------------|
E|-------------------------------|--------------------|---------------------------|

          (Guitar 1)
e|-------0-------------------|
B|-----3-----3---------------|
G|---2-----2---2-------------|
D|-0-------------------------|
A|---------------------------|
E|---------------------------|

           (Guitar 2)
e|-0----0----0----0----0-----|
B|---2----2----2----2----2---|
G|-----2----2----2----2----2-|
D|---------------------------|
A|---------------------------|
E|---------------------------|

           (Guitar 2)
e|-9p5--9p5--9p5--9p5--9p5---|
B|----5----5----5----5-----5-|
G|---------------------------|
D|---------------------------|
A|---------------------------|
E|---------------------------|

                                (Guitar 1)
e|-----------0-------|-----------0-------------------|-------3------------|
B|-------0-----------|-------1-----------------------|-----0-----0--------|
G|-----0---0---------|-----0-----------0-------------|---0-----0----------|
D|---2---------------|---2-----2---0h2---------------|--------------------|
A|-4-----------------|-3-----------------------------|-2------------------|
E|-------------------|-------------------------------|-------------3------|

                                 (Guitar 2)
e|----------------/4-|-------------------------------|--------------------|
B|-3p0---3p0---3p0---|-3p0---3p0---3p0---3p0---3p0---|-3-----3-----3---/7-|
G|-----1-----1-------|-----0-----0-----0-----0-----0-|---2-----2-----2----|
D|-------------------|-------------------------------|-----4-----4--------|
A|-------------------|-------------------------------|--------------------|
E|-------------------|-------------------------------|--------------------|

                                 (Guitar 2)
e|-7p4---7p4---7p4/12|-7p3---7p3---7p3---7p3---7p3---|-5p2---5p2---5-/10--|
B|----5----5---------|-----3-----3-----3-----3-----3-|-----3-----3--------|
G|-------------------|-------------------------------|--------------------|
D|-------------------|-------------------------------|--------------------|
A|-------------------|-------------------------------|--------------------|
E|-------------------|-------------------------------|--------------------|

                                (Guitar 1)
e|-----------0----------------------|------------2-------------------|-0-|
B|-------1--------------------------|--------0-----------------------|-0-|
G|-----0---0------------------------|----0-2---2---------------------|-0-|
D|---2------------------------------|--------------------------------|-2-|
A|-0--------------------------------|--2-----------------------------|-2-|
E|-------------0--------------------|--------------------------------|-0-|

                                (Guitar 2)
e|----------------------------------|------------0----2--------------|-2-|
B|-0----0----0----0----0------------|--2----3------2----3---3p2--0---|-3-|
G|---0----0----0----0----0---0h3h4--|----3----4------3----4----3-----|-4-|
D|-----2----2----2----2----2--------|------4----4--------------------|-4-|
A|----------------------------------|--------------------------------|-2-|
E|----------------------------------|--------------------------------|-2-|

                                (Guitar 3)
e|-3p0--3p0--3p0--3p0--3p0----------|--0----2----6----7--------------|-7-|
B|----0----0----0----0----0----2h3--|----2----3----7----7-------7-11-|-7-|
G|----------------------------------|------3----4----9----7-7-9------|-7-|
D|----------------------------------|--------------------------------|-9-|
A|----------------------------------|--------------------------------|-9-|
E|----------------------------------|--------------------------------|-7-|



************************************
 
/   - slide up
\   - slide down
~   - vibrato
-   - strum
p   - pluck off
h   - hammer on
X   - don't play

************************************
Suggest correction
comments
print report bad tab
24 comments total. Showing first comments.
+4 reply
CMJPEC 239 Oct 15, 2004 08:00 PM

solid dude solid but in my version on hell freezes over he plays the one fast part in the intro about 12 times to please the crowd, and then he plays that little run before the drums come in...

e|----7p0---10p0---|
B|---8-----8-------|Times 12 im pretty sure
G|--9-----9--------|

+1 reply
butcherworm 135 Dec 27, 2005 01:28 AM

a graet tab!!!

0 reply
andreas5 793 Jan 21, 2006 09:36 AM

so beautiful , and CMPJEC has right on that part , dunno how many but something like that, awesome tab!!!

guest
You may want to rate the tab now too:
select rating
Wanna post a correction for this tab? Suggest correction