Oops, an error
Loading. Please wait.

Hotel California Tab

version 2
version 2

Solo

Video

  • The video starts with an example of the solo with ... Show more
1,551,385 views 4,056 this week
89 commentsread comments
1 2 3 4 5
x 331
add to favorites
launch autoscroll
font size
0
reset
how to read this tab
guitar tuner
Autoscroll
slow
fast
+/-
esc
set tempo
stop
Help us to improve Ultimate-Guitar.com Take our survey!
×
 (4:20)
e|---------------------------------------------------------------------|
B|---------10h12b15---10-12--------7-----------------------------------|
G|--10/11------------------9--7-9---7----------------------------------|
D|------------------------------------8--9h11p9p7b8--------------------|
A|---------------------------------------------------------------------|
E|---------------------------------------------------------------------|

(4:28)
e|-----------------------------------------10------------------7----10b12--|
B|-----7--------------7-------------10b12------br10--7-10-8b9----7---------|
G|-7-9---7--------7-9---7--------------------------------------------------|
D|---------9-7-9----------9-7-9--7-----------------------------------------|
A|-------------------------------------------------------------------------|
E|-------------------------------------------------------------------------|

(4:35)
e|-10--12pb10--7-------10---------------------10-------------------------------|
B|---------------10b12----12br10---8-------------------------------------------|
G|------------------------------------x-x-9b11---12br9--7---7p6--7-------------|
D|-----------------------------------------------------------------------------|
A|-----------------------------------------------------------------------------|
E|---------------------- ------------------------------------------------------|

(4:41)
e|---------------------------------------------------7----------------|
B|------7b--7bbr---------7b-7b--7bbr---------7-10----7----------------|
G|-7h9-----------9-7-9--------------9-7-9b------9b------9b-9p7--9b----|
D|--------------------------------------------------------------------|
A|--------------------------------------------------------------------|
E|--------------------------------------------------------------------|

(4:47)
e|--------------7----7-7-----------------------------------------------|
B|----7-10----7------7-7-----7-7---------------------------------------|
G|-9b------9b-----9b------9b-----9bbrp7-9---7----9b-/------------------|
D|---------------------------------------------------------------------|
A|---------------------------------------------------------------------|
E|---------------------------------------------------------------------|

(4:54)
e|-----------------------7----------10--------------------------------|
B|--------7----------10b---10-7-10b----10-12-11--10-9~----------------|
G|-11b--9---7-----------------------------------------------------14b-|
D|-------------9--7---------------------------------------------------|
A|--------------------------------------------------------------------|
E|--------------------------------------------------------------------|

(5:01)
e|-------------------17--------------------15-16-17-19------------------|
B|-12--15--17-15-17b----17br--15-17-15-17b-------------17b-17br-15--17--|
G|----------------------------------------------------------------------|
D|----------------------------------------------------------------------|
A|----------------------------------------------------------------------|
E|----------------------------------------------------------------------|

(5:07)
e|------------17-17--------------------14-----17-17-------------------17b-|
B|-17p15--17b-------17br--17b~--17r-15----17b-------17br-17b~-17br-15-----|
G|------------------------------------------------------------------------|
D|------------------------------------------------------------------------|
A|------------------------------------------------------------------------|
E|------------------------------------------------------------------------|

(5:15)
e|-----10-----10-----------------------------------------------------|
B|-12b----12b-------------------11-----------------------------------|
G|----------------10p9p7---------------------------------------------|
D|------------------------9--8---------------------------------------|
A|-------------------------------------------------------------------|
E|-------------------------------------------------------------------|

(5:20)
e|-12bb--12b-12b-12b-12b-12b-12b-12b-12b-12-12p10----12-10------------|
B|------------------------------------------------12-------12---------|
G|--------------------------------------------------------------------|
D|--------------------------------------------------------------------|
A|--------------------------------------------------------------------|
E\--------------------------------------------------------------------|

(5:24)
e---------------------------------------------------------------------|
B|-10------------10-------8-------------------------------------------|
G|----9bbr-7--9b-------9b---------------------------------------------|
D|--------------------------------------------------------------------|
A|--------------------------------------------------------------------|
E|--------------------------------------------------------------------|

(5:26)
e|-10----9---7---------------------------14----12-10------------------|
B|----10---8------10---8--------------------10------------------7---8-|
G|-------------11----9-----7-----------7-------------12bbr--11--------|
D|-----------------------7---7\5-4-5/7--------------------------------|
A|--------------------------------------------------------------------|
E|--------------------------------------------------------------------|

(5:34)
e|---------------------9-----10-----12--------------------------------|
B|-8--10----12---11---------------------------------------------------|
G|--------------------------------------------------------------------|
D|--------------------------------------------------------------------|
A|--------------------------------------------------------------------|
E|--------------------------------------------------------------------|


[Riff 1]   (5:39)
e|-14-------14-------14-------14-------14-----------------------------|
B|----15-------15-------15-------15-------15--------------------------|
G|-------16-------16-------16-------16-------16-----------------------|
D|--------------------------------------------------------------------|
A|--------------------------------------------------------------------|
E|--------------------------------------------------------------------|

e|---------------------------------18---------------------------------|
B|--17--14-----17--14-----17--14--------------------------------------|
G|---------15---------15----------------------------------------------|
D|--------------------------------------------------------------------|
A|--------------------------------------------------------------------|
E|--------------------------------------------------------------------|

e|-12-------12-------12-------12-------12-------12-------12-------12----16-|
B|----14-------14-------14-------14-------14-------12-------12-------12----|
G|-------14-------14-------14-------14-------14-------13-------13----------|
D|-------------------------------------------------------------------------|
A|-------------------------------------------------------------------------|
E|-------------------------------------------------------------------------|

e|-10-------10-------10-------10-------10-------10-------10-------10----14-|
B|----12-------12-------12-------12-------12-------10-------10-------10----|
G|-------12-------12-------12-------12-------12-------11-------11----------|
D|-------------------------------------------------------------------------|
A|-------------------------------------------------------------------------|
E|-------------------------------------------------------------------------|

e|-12-------12-------12-------12-------12-------11-------11-------------14-|
B|----12-------12-------12-------12-------12-------11-------11----11-------|
G|-------14-------14-------14-------14-------14-------11-------11----11----|
D|-------------------------------------------------------------------------|
A|-------------------------------------------------------------------------|
E|-------------------------------------------------------------------------|

(Repeat this Riff 1 again until fade)



***********************************
| /   Slide up
| \   Slide down
| h   Hummer-on
| p   Pull-off
| ~   Vibrato
| x   Dead note
| b   Bend
| pb  Pre-bend
| br  Bend release
| brb Bend release bend 
***********************************
Suggest correction
comments
print report bad tab
89 comments total. Showing first comments. show 1 bad comment
+3 reply
vhhendrixcrazy 2,770 Sep 06, 2004 12:00 AM

thanks for the great ratings, guys! i appreciate it. and by the way, I'm the one who transcribed this tab, so i get all the credit. thanx!!

+3 reply
Justin Weber 10 Feb 10, 2005 12:00 AM

Are you retarded, the beginning, the middle, the end and the entire solo is 200% right. It took me awhile and after some frustration and many hours, I can play it with the CD. Wonderful Tab.

guest
You may want to rate the tab now too:
select rating
Wanna post a correction for this tab? Suggest correction